ISO-10303-21;
HEADER;
/* Generated by software containing ST-Developer
 * from STEP Tools, Inc. (www.steptools.com) 
 */

FILE_DESCRIPTION(
/* description */ (''),
/* implementation_level */ '2;1');

FILE_NAME(
/* name */ 
'S:\\Stahlin_Non_Metallic\\30675\\CAD_files\\ENTEGEE_Design\\HW-MP808A.
stp',
/* time_stamp */ '2014-03-05T12:31:04-06:00',
/* author */ ('jtigges'),
/* organization */ (''),
/* preprocessor_version */ 'ST-DEVELOPER v15.2',
/* originating_system */ 'Autodesk Inventor 2014',
/* authorisation */ '');

FILE_SCHEMA (('AUTOMOTIVE_DESIGN { 1 0 10303 214 3 1 1 }'));
ENDSEC;

DATA;
#10=SHAPE_REPRESENTATION_RELATIONSHIP('SRR','None',#326,#11);
#11=ADVANCED_BREP_SHAPE_REPRESENTATION($,(#196),#314);
#12=LINE($,#290,#24);
#13=LINE($,#292,#25);
#14=LINE($,#294,#26);
#15=LINE($,#295,#27);
#16=LINE($,#298,#28);
#17=LINE($,#300,#29);
#18=LINE($,#301,#30);
#19=LINE($,#304,#31);
#20=LINE($,#306,#32);
#21=LINE($,#307,#33);
#22=LINE($,#309,#34);
#23=LINE($,#310,#35);
#24=VECTOR($,#244,6.875);
#25=VECTOR($,#245,0.08);
#26=VECTOR($,#246,6.875);
#27=VECTOR($,#247,0.08);
#28=VECTOR($,#250,6.875);
#29=VECTOR($,#251,0.08);
#30=VECTOR($,#252,6.875);
#31=VECTOR($,#255,6.875);
#32=VECTOR($,#256,0.08);
#33=VECTOR($,#257,6.875);
#34=VECTOR($,#260,6.875);
#35=VECTOR($,#261,6.875);
#36=PLANE($,#210);
#37=PLANE($,#211);
#38=PLANE($,#212);
#39=PLANE($,#213);
#40=PLANE($,#214);
#41=PLANE($,#215);
#42=FACE_BOUND($,#65,.T.);
#43=FACE_BOUND($,#67,.T.);
#44=FACE_BOUND($,#69,.T.);
#45=FACE_BOUND($,#71,.T.);
#46=FACE_BOUND($,#77,.T.);
#47=FACE_BOUND($,#78,.T.);
#48=FACE_BOUND($,#79,.T.);
#49=FACE_BOUND($,#80,.T.);
#50=FACE_BOUND($,#82,.T.);
#51=FACE_BOUND($,#83,.T.);
#52=FACE_BOUND($,#84,.T.);
#53=FACE_BOUND($,#85,.T.);
#54=FACE_OUTER_BOUND($,#64,.T.);
#55=FACE_OUTER_BOUND($,#66,.T.);
#56=FACE_OUTER_BOUND($,#68,.T.);
#57=FACE_OUTER_BOUND($,#70,.T.);
#58=FACE_OUTER_BOUND($,#72,.T.);
#59=FACE_OUTER_BOUND($,#73,.T.);
#60=FACE_OUTER_BOUND($,#74,.T.);
#61=FACE_OUTER_BOUND($,#75,.T.);
#62=FACE_OUTER_BOUND($,#76,.T.);
#63=FACE_OUTER_BOUND($,#81,.T.);
#64=EDGE_LOOP($,(#130));
#65=EDGE_LOOP($,(#131));
#66=EDGE_LOOP($,(#132));
#67=EDGE_LOOP($,(#133));
#68=EDGE_LOOP($,(#134));
#69=EDGE_LOOP($,(#135));
#70=EDGE_LOOP($,(#136));
#71=EDGE_LOOP($,(#137));
#72=EDGE_LOOP($,(#138,#139,#140,#141));
#73=EDGE_LOOP($,(#142,#143,#144,#145));
#74=EDGE_LOOP($,(#146,#147,#148,#149));
#75=EDGE_LOOP($,(#150,#151,#152,#153));
#76=EDGE_LOOP($,(#154,#155,#156,#157));
#77=EDGE_LOOP($,(#158));
#78=EDGE_LOOP($,(#159));
#79=EDGE_LOOP($,(#160));
#80=EDGE_LOOP($,(#161));
#81=EDGE_LOOP($,(#162,#163,#164,#165));
#82=EDGE_LOOP($,(#166));
#83=EDGE_LOOP($,(#167));
#84=EDGE_LOOP($,(#168));
#85=EDGE_LOOP($,(#169));
#86=CIRCLE($,#199,0.125);
#87=CIRCLE($,#200,0.125);
#88=CIRCLE($,#202,0.125);
#89=CIRCLE($,#203,0.125);
#90=CIRCLE($,#205,0.125);
#91=CIRCLE($,#206,0.125);
#92=CIRCLE($,#208,0.125);
#93=CIRCLE($,#209,0.125);
#94=VERTEX_POINT($,#268);
#95=VERTEX_POINT($,#270);
#96=VERTEX_POINT($,#273);
#97=VERTEX_POINT($,#275);
#98=VERTEX_POINT($,#278);
#99=VERTEX_POINT($,#280);
#100=VERTEX_POINT($,#283);
#101=VERTEX_POINT($,#285);
#102=VERTEX_POINT($,#288);
#103=VERTEX_POINT($,#289);
#104=VERTEX_POINT($,#291);
#105=VERTEX_POINT($,#293);
#106=VERTEX_POINT($,#297);
#107=VERTEX_POINT($,#299);
#108=VERTEX_POINT($,#303);
#109=VERTEX_POINT($,#305);
#110=EDGE_CURVE($,#94,#94,#86,.T.);
#111=EDGE_CURVE($,#95,#95,#87,.T.);
#112=EDGE_CURVE($,#96,#96,#88,.T.);
#113=EDGE_CURVE($,#97,#97,#89,.T.);
#114=EDGE_CURVE($,#98,#98,#90,.T.);
#115=EDGE_CURVE($,#99,#99,#91,.T.);
#116=EDGE_CURVE($,#100,#100,#92,.T.);
#117=EDGE_CURVE($,#101,#101,#93,.T.);
#118=EDGE_CURVE($,#102,#103,#12,.T.);
#119=EDGE_CURVE($,#104,#103,#13,.T.);
#120=EDGE_CURVE($,#105,#104,#14,.T.);
#121=EDGE_CURVE($,#105,#102,#15,.T.);
#122=EDGE_CURVE($,#103,#106,#16,.T.);
#123=EDGE_CURVE($,#107,#106,#17,.T.);
#124=EDGE_CURVE($,#104,#107,#18,.T.);
#125=EDGE_CURVE($,#106,#108,#19,.T.);
#126=EDGE_CURVE($,#109,#108,#20,.T.);
#127=EDGE_CURVE($,#107,#109,#21,.T.);
#128=EDGE_CURVE($,#108,#102,#22,.T.);
#129=EDGE_CURVE($,#109,#105,#23,.T.);
#130=ORIENTED_EDGE($,*,*,#110,.F.);
#131=ORIENTED_EDGE($,*,*,#111,.F.);
#132=ORIENTED_EDGE($,*,*,#112,.F.);
#133=ORIENTED_EDGE($,*,*,#113,.F.);
#134=ORIENTED_EDGE($,*,*,#114,.F.);
#135=ORIENTED_EDGE($,*,*,#115,.F.);
#136=ORIENTED_EDGE($,*,*,#116,.F.);
#137=ORIENTED_EDGE($,*,*,#117,.F.);
#138=ORIENTED_EDGE($,*,*,#118,.T.);
#139=ORIENTED_EDGE($,*,*,#119,.F.);
#140=ORIENTED_EDGE($,*,*,#120,.F.);
#141=ORIENTED_EDGE($,*,*,#121,.T.);
#142=ORIENTED_EDGE($,*,*,#122,.T.);
#143=ORIENTED_EDGE($,*,*,#123,.F.);
#144=ORIENTED_EDGE($,*,*,#124,.F.);
#145=ORIENTED_EDGE($,*,*,#119,.T.);
#146=ORIENTED_EDGE($,*,*,#125,.T.);
#147=ORIENTED_EDGE($,*,*,#126,.F.);
#148=ORIENTED_EDGE($,*,*,#127,.F.);
#149=ORIENTED_EDGE($,*,*,#123,.T.);
#150=ORIENTED_EDGE($,*,*,#128,.T.);
#151=ORIENTED_EDGE($,*,*,#121,.F.);
#152=ORIENTED_EDGE($,*,*,#129,.F.);
#153=ORIENTED_EDGE($,*,*,#126,.T.);
#154=ORIENTED_EDGE($,*,*,#118,.F.);
#155=ORIENTED_EDGE($,*,*,#128,.F.);
#156=ORIENTED_EDGE($,*,*,#125,.F.);
#157=ORIENTED_EDGE($,*,*,#122,.F.);
#158=ORIENTED_EDGE($,*,*,#110,.T.);
#159=ORIENTED_EDGE($,*,*,#112,.T.);
#160=ORIENTED_EDGE($,*,*,#114,.T.);
#161=ORIENTED_EDGE($,*,*,#116,.T.);
#162=ORIENTED_EDGE($,*,*,#129,.T.);
#163=ORIENTED_EDGE($,*,*,#120,.T.);
#164=ORIENTED_EDGE($,*,*,#124,.T.);
#165=ORIENTED_EDGE($,*,*,#127,.T.);
#166=ORIENTED_EDGE($,*,*,#111,.T.);
#167=ORIENTED_EDGE($,*,*,#113,.T.);
#168=ORIENTED_EDGE($,*,*,#115,.T.);
#169=ORIENTED_EDGE($,*,*,#117,.T.);
#170=CYLINDRICAL_SURFACE($,#198,0.125);
#171=CYLINDRICAL_SURFACE($,#201,0.125);
#172=CYLINDRICAL_SURFACE($,#204,0.125);
#173=CYLINDRICAL_SURFACE($,#207,0.125);
#174=STYLED_ITEM($,(#336),#185);
#175=STYLED_ITEM($,(#336),#186);
#176=STYLED_ITEM($,(#336),#187);
#177=STYLED_ITEM($,(#336),#188);
#178=STYLED_ITEM($,(#336),#189);
#179=STYLED_ITEM($,(#336),#190);
#180=STYLED_ITEM($,(#336),#191);
#181=STYLED_ITEM($,(#336),#192);
#182=STYLED_ITEM($,(#336),#193);
#183=STYLED_ITEM($,(#336),#194);
#184=STYLED_ITEM($,(#335),#196);
#185=ADVANCED_FACE($,(#54,#42),#170,.F.);
#186=ADVANCED_FACE($,(#55,#43),#171,.F.);
#187=ADVANCED_FACE($,(#56,#44),#172,.F.);
#188=ADVANCED_FACE($,(#57,#45),#173,.F.);
#189=ADVANCED_FACE($,(#58),#36,.T.);
#190=ADVANCED_FACE($,(#59),#37,.T.);
#191=ADVANCED_FACE($,(#60),#38,.T.);
#192=ADVANCED_FACE($,(#61),#39,.T.);
#193=ADVANCED_FACE($,(#62,#46,#47,#48,#49),#40,.T.);
#194=ADVANCED_FACE($,(#63,#50,#51,#52,#53),#41,.F.);
#195=CLOSED_SHELL($,(#185,#186,#187,#188,#189,#190,#191,#192,#193,#194));
#196=MANIFOLD_SOLID_BREP('Solid1',#195);
#197=AXIS2_PLACEMENT_3D('placement',#266,#216,#217);
#198=AXIS2_PLACEMENT_3D($,#267,#218,#219);
#199=AXIS2_PLACEMENT_3D($,#269,#220,#221);
#200=AXIS2_PLACEMENT_3D($,#271,#222,#223);
#201=AXIS2_PLACEMENT_3D($,#272,#224,#225);
#202=AXIS2_PLACEMENT_3D($,#274,#226,#227);
#203=AXIS2_PLACEMENT_3D($,#276,#228,#229);
#204=AXIS2_PLACEMENT_3D($,#277,#230,#231);
#205=AXIS2_PLACEMENT_3D($,#279,#232,#233);
#206=AXIS2_PLACEMENT_3D($,#281,#234,#235);
#207=AXIS2_PLACEMENT_3D($,#282,#236,#237);
#208=AXIS2_PLACEMENT_3D($,#284,#238,#239);
#209=AXIS2_PLACEMENT_3D($,#286,#240,#241);
#210=AXIS2_PLACEMENT_3D($,#287,#242,#243);
#211=AXIS2_PLACEMENT_3D($,#296,#248,#249);
#212=AXIS2_PLACEMENT_3D($,#302,#253,#254);
#213=AXIS2_PLACEMENT_3D($,#308,#258,#259);
#214=AXIS2_PLACEMENT_3D($,#311,#262,#263);
#215=AXIS2_PLACEMENT_3D($,#312,#264,#265);
#216=DIRECTION('axis',(0.,0.,1.));
#217=DIRECTION('refdir',(1.,0.,0.));
#218=DIRECTION('center_axis',(0.,0.,1.));
#219=DIRECTION('ref_axis',(-1.,0.,0.));
#220=DIRECTION('center_axis',(0.,0.,-1.));
#221=DIRECTION('ref_axis',(-1.,0.,0.));
#222=DIRECTION('center_axis',(0.,0.,1.));
#223=DIRECTION('ref_axis',(-1.,0.,0.));
#224=DIRECTION('center_axis',(0.,0.,1.));
#225=DIRECTION('ref_axis',(-1.,0.,0.));
#226=DIRECTION('center_axis',(0.,0.,-1.));
#227=DIRECTION('ref_axis',(-1.,0.,0.));
#228=DIRECTION('center_axis',(0.,0.,1.));
#229=DIRECTION('ref_axis',(-1.,0.,0.));
#230=DIRECTION('center_axis',(0.,0.,1.));
#231=DIRECTION('ref_axis',(-1.,0.,0.));
#232=DIRECTION('center_axis',(0.,0.,-1.));
#233=DIRECTION('ref_axis',(-1.,0.,0.));
#234=DIRECTION('center_axis',(0.,0.,1.));
#235=DIRECTION('ref_axis',(-1.,0.,0.));
#236=DIRECTION('center_axis',(0.,0.,1.));
#237=DIRECTION('ref_axis',(-1.,0.,0.));
#238=DIRECTION('center_axis',(0.,0.,-1.));
#239=DIRECTION('ref_axis',(-1.,0.,0.));
#240=DIRECTION('center_axis',(0.,0.,1.));
#241=DIRECTION('ref_axis',(-1.,0.,0.));
#242=DIRECTION('center_axis',(1.,0.,0.));
#243=DIRECTION('ref_axis',(0.,0.,-1.));
#244=DIRECTION($,(0.,-1.,0.));
#245=DIRECTION($,(0.,0.,1.));
#246=DIRECTION($,(0.,-1.,0.));
#247=DIRECTION($,(0.,0.,1.));
#248=DIRECTION('center_axis',(0.,-1.,0.));
#249=DIRECTION('ref_axis',(0.,0.,-1.));
#250=DIRECTION($,(-1.,0.,0.));
#251=DIRECTION($,(0.,0.,1.));
#252=DIRECTION($,(-1.,0.,0.));
#253=DIRECTION('center_axis',(-1.,0.,0.));
#254=DIRECTION('ref_axis',(0.,0.,1.));
#255=DIRECTION($,(0.,1.,0.));
#256=DIRECTION($,(0.,0.,1.));
#257=DIRECTION($,(0.,1.,0.));
#258=DIRECTION('center_axis',(0.,1.,0.));
#259=DIRECTION('ref_axis',(0.,0.,1.));
#260=DIRECTION($,(1.,0.,0.));
#261=DIRECTION($,(1.,0.,0.));
#262=DIRECTION('center_axis',(0.,0.,1.));
#263=DIRECTION('ref_axis',(1.,0.,0.));
#264=DIRECTION('center_axis',(0.,0.,1.));
#265=DIRECTION('ref_axis',(1.,0.,0.));
#266=CARTESIAN_POINT('',(0.,0.,0.));
#267=CARTESIAN_POINT('Origin',(3.125,-3.125,0.));
#268=CARTESIAN_POINT('',(3.25,-3.125,0.08));
#269=CARTESIAN_POINT('Origin',(3.125,-3.125,0.08));
#270=CARTESIAN_POINT('',(3.25,-3.125,0.));
#271=CARTESIAN_POINT('Origin',(3.125,-3.125,0.));
#272=CARTESIAN_POINT('Origin',(3.125,3.125,0.));
#273=CARTESIAN_POINT('',(3.25,3.125,0.08));
#274=CARTESIAN_POINT('Origin',(3.125,3.125,0.08));
#275=CARTESIAN_POINT('',(3.25,3.125,0.));
#276=CARTESIAN_POINT('Origin',(3.125,3.125,0.));
#277=CARTESIAN_POINT('Origin',(-3.125,3.125,0.));
#278=CARTESIAN_POINT('',(-3.,3.125,0.08));
#279=CARTESIAN_POINT('Origin',(-3.125,3.125,0.08));
#280=CARTESIAN_POINT('',(-3.,3.125,0.));
#281=CARTESIAN_POINT('Origin',(-3.125,3.125,0.));
#282=CARTESIAN_POINT('Origin',(-3.125,-3.125,0.));
#283=CARTESIAN_POINT('',(-3.,-3.125,0.08));
#284=CARTESIAN_POINT('Origin',(-3.125,-3.125,0.08));
#285=CARTESIAN_POINT('',(-3.,-3.125,0.));
#286=CARTESIAN_POINT('Origin',(-3.125,-3.125,0.));
#287=CARTESIAN_POINT('Origin',(3.4375,3.4375,0.));
#288=CARTESIAN_POINT('',(3.4375,3.4375,0.08));
#289=CARTESIAN_POINT('',(3.4375,-3.4375,0.08));
#290=CARTESIAN_POINT($,(3.4375,3.4375,0.08));
#291=CARTESIAN_POINT('',(3.4375,-3.4375,0.));
#292=CARTESIAN_POINT($,(3.4375,-3.4375,0.));
#293=CARTESIAN_POINT('',(3.4375,3.4375,0.));
#294=CARTESIAN_POINT($,(3.4375,3.4375,0.));
#295=CARTESIAN_POINT($,(3.4375,3.4375,0.));
#296=CARTESIAN_POINT('Origin',(3.4375,-3.4375,0.));
#297=CARTESIAN_POINT('',(-3.4375,-3.4375,0.08));
#298=CARTESIAN_POINT($,(3.4375,-3.4375,0.08));
#299=CARTESIAN_POINT('',(-3.4375,-3.4375,0.));
#300=CARTESIAN_POINT($,(-3.4375,-3.4375,0.));
#301=CARTESIAN_POINT($,(3.4375,-3.4375,0.));
#302=CARTESIAN_POINT('Origin',(-3.4375,-3.4375,0.));
#303=CARTESIAN_POINT('',(-3.4375,3.4375,0.08));
#304=CARTESIAN_POINT($,(-3.4375,-3.4375,0.08));
#305=CARTESIAN_POINT('',(-3.4375,3.4375,0.));
#306=CARTESIAN_POINT($,(-3.4375,3.4375,0.));
#307=CARTESIAN_POINT($,(-3.4375,-3.4375,0.));
#308=CARTESIAN_POINT('Origin',(-3.4375,3.4375,0.));
#309=CARTESIAN_POINT($,(-3.4375,3.4375,0.08));
#310=CARTESIAN_POINT($,(-3.4375,3.4375,0.));
#311=CARTESIAN_POINT('Origin',(-1.748383E-016,1.748383E-016,0.08));
#312=CARTESIAN_POINT('Origin',(-1.748383E-016,1.748383E-016,0.));
#313=UNCERTAINTY_MEASURE_WITH_UNIT(LENGTH_MEASURE(0.000393700787401575),
#315,'DISTANCE_ACCURACY_VALUE',
'Maximum model space distance between geometric entities at asserted c
onnectivities');
#314=(
GEOMETRIC_REPRESENTATION_CONTEXT(3)
GLOBAL_UNCERTAINTY_ASSIGNED_CONTEXT((#313))
GLOBAL_UNIT_ASSIGNED_CONTEXT((#315,#321,#318))
REPRESENTATION_CONTEXT('','3D')
);
#315=(
CONVERSION_BASED_UNIT('__CONSTANT UNIT inch',#317)
LENGTH_UNIT()
NAMED_UNIT(#320)
);
#316=(
LENGTH_UNIT()
NAMED_UNIT(*)
SI_UNIT(.MILLI.,.METRE.)
);
#317=LENGTH_MEASURE_WITH_UNIT(LENGTH_MEASURE(25.4),#316);
#318=(
NAMED_UNIT(*)
SI_UNIT($,.STERADIAN.)
SOLID_ANGLE_UNIT()
);
#319=DIMENSIONAL_EXPONENTS(0.,0.,0.,0.,0.,0.,0.);
#320=DIMENSIONAL_EXPONENTS(1.,0.,0.,0.,0.,0.,0.);
#321=(
CONVERSION_BASED_UNIT('degree',#323)
NAMED_UNIT(#319)
PLANE_ANGLE_UNIT()
);
#322=(
NAMED_UNIT(*)
PLANE_ANGLE_UNIT()
SI_UNIT($,.RADIAN.)
);
#323=PLANE_ANGLE_MEASURE_WITH_UNIT(PLANE_ANGLE_MEASURE(0.01745329252),#322);
#324=SHAPE_DEFINITION_REPRESENTATION(#325,#326);
#325=PRODUCT_DEFINITION_SHAPE('',$,#328);
#326=SHAPE_REPRESENTATION('',(#197),#314);
#327=PRODUCT_DEFINITION_CONTEXT('3D Mechanical Parts',#331,'design');
#328=PRODUCT_DEFINITION('BP88AL_STP','BP88AL_STP',#329,#327);
#329=PRODUCT_DEFINITION_FORMATION('',$,#333);
#330=APPLICATION_PROTOCOL_DEFINITION('international standard',
'automotive_design',2009,#331);
#331=APPLICATION_CONTEXT(
'Core Data for Automotive Mechanical Design Process');
#332=PRODUCT_CONTEXT('3D Mechanical Parts',#331,'mechanical');
#333=PRODUCT('BP88AL_STP','BP88AL_STP',$,(#332));
#334=PRESENTATION_STYLE_ASSIGNMENT((#337));
#335=PRESENTATION_STYLE_ASSIGNMENT((#338));
#336=PRESENTATION_STYLE_ASSIGNMENT((#339));
#337=SURFACE_STYLE_USAGE(.BOTH.,#340);
#338=SURFACE_STYLE_USAGE(.BOTH.,#341);
#339=SURFACE_STYLE_USAGE(.BOTH.,#342);
#340=SURFACE_SIDE_STYLE($,(#343));
#341=SURFACE_SIDE_STYLE($,(#344));
#342=SURFACE_SIDE_STYLE($,(#345));
#343=SURFACE_STYLE_FILL_AREA(#346);
#344=SURFACE_STYLE_FILL_AREA(#347);
#345=SURFACE_STYLE_FILL_AREA(#348);
#346=FILL_AREA_STYLE($,(#349));
#347=FILL_AREA_STYLE($,(#350));
#348=FILL_AREA_STYLE($,(#351));
#349=FILL_AREA_STYLE_COLOUR($,#352);
#350=FILL_AREA_STYLE_COLOUR($,#353);
#351=FILL_AREA_STYLE_COLOUR($,#354);
#352=COLOUR_RGB('',0.749019607843137,0.749019607843137,0.749019607843137);
#353=COLOUR_RGB('',0.847058823529412,0.83921568627451,0.83921568627451);
#354=COLOUR_RGB('',0.949019607843137,0.925490196078431,0.933333333333333);
ENDSEC;
END-ISO-10303-21;
