ISO-10303-21;
HEADER;
/* Generated by software containing ST-Developer
 * from STEP Tools, Inc. (www.steptools.com) 
 */

FILE_DESCRIPTION(
/* description */ ('JW, BOX CONNECTOR, CRS, 2.5X2.5'),
/* implementation_level */ '2;1');

FILE_NAME(
/* name */ 
'C:\\Wiegmann\\W-Projects\\Wyatt\\JW_FITTINGS\\JWA\\DXF, PDF, STP\\JWA
2.stp',
/* time_stamp */ '2017-05-23T09:04:03-05:00',
/* author */ ('wford'),
/* organization */ (''),
/* preprocessor_version */ 'ST-DEVELOPER v16.1',
/* originating_system */ 'Autodesk Inventor 2016',
/* authorisation */ '');

FILE_SCHEMA (('AUTOMOTIVE_DESIGN { 1 0 10303 214 3 1 1 }'));
ENDSEC;

DATA;
#10=MECHANICAL_DESIGN_GEOMETRIC_PRESENTATION_REPRESENTATION('',(#13),#583);
#11=SHAPE_REPRESENTATION_RELATIONSHIP('SRR','None',#595,#12);
#12=ADVANCED_BREP_SHAPE_REPRESENTATION('',(#14),#582);
#13=STYLED_ITEM('',(#604),#14);
#14=MANIFOLD_SOLID_BREP('Solid1',#351);
#15=FACE_BOUND('',#60,.T.);
#16=FACE_BOUND('',#61,.T.);
#17=FACE_BOUND('',#62,.T.);
#18=FACE_BOUND('',#63,.T.);
#19=FACE_BOUND('',#64,.T.);
#20=FACE_BOUND('',#75,.T.);
#21=FACE_BOUND('',#77,.T.);
#22=FACE_BOUND('',#79,.T.);
#23=FACE_BOUND('',#81,.T.);
#24=FACE_BOUND('',#84,.T.);
#25=FACE_BOUND('',#85,.T.);
#26=FACE_BOUND('',#86,.T.);
#27=FACE_BOUND('',#87,.T.);
#28=FACE_BOUND('',#88,.T.);
#29=PLANE('',#356);
#30=PLANE('',#357);
#31=PLANE('',#367);
#32=PLANE('',#370);
#33=PLANE('',#373);
#34=PLANE('',#374);
#35=PLANE('',#375);
#36=PLANE('',#376);
#37=PLANE('',#385);
#38=PLANE('',#386);
#39=FACE_OUTER_BOUND('',#57,.T.);
#40=FACE_OUTER_BOUND('',#58,.T.);
#41=FACE_OUTER_BOUND('',#59,.T.);
#42=FACE_OUTER_BOUND('',#65,.T.);
#43=FACE_OUTER_BOUND('',#66,.T.);
#44=FACE_OUTER_BOUND('',#67,.T.);
#45=FACE_OUTER_BOUND('',#68,.T.);
#46=FACE_OUTER_BOUND('',#69,.T.);
#47=FACE_OUTER_BOUND('',#70,.T.);
#48=FACE_OUTER_BOUND('',#71,.T.);
#49=FACE_OUTER_BOUND('',#72,.T.);
#50=FACE_OUTER_BOUND('',#73,.T.);
#51=FACE_OUTER_BOUND('',#74,.T.);
#52=FACE_OUTER_BOUND('',#76,.T.);
#53=FACE_OUTER_BOUND('',#78,.T.);
#54=FACE_OUTER_BOUND('',#80,.T.);
#55=FACE_OUTER_BOUND('',#82,.T.);
#56=FACE_OUTER_BOUND('',#83,.T.);
#57=EDGE_LOOP('',(#237,#238,#239,#240));
#58=EDGE_LOOP('',(#241,#242,#243,#244));
#59=EDGE_LOOP('',(#245,#246,#247,#248,#249,#250,#251,#252));
#60=EDGE_LOOP('',(#253,#254,#255,#256));
#61=EDGE_LOOP('',(#257));
#62=EDGE_LOOP('',(#258));
#63=EDGE_LOOP('',(#259));
#64=EDGE_LOOP('',(#260));
#65=EDGE_LOOP('',(#261,#262,#263,#264));
#66=EDGE_LOOP('',(#265,#266,#267,#268));
#67=EDGE_LOOP('',(#269,#270,#271,#272));
#68=EDGE_LOOP('',(#273,#274,#275,#276));
#69=EDGE_LOOP('',(#277,#278,#279,#280));
#70=EDGE_LOOP('',(#281,#282,#283,#284));
#71=EDGE_LOOP('',(#285,#286,#287,#288));
#72=EDGE_LOOP('',(#289,#290,#291,#292));
#73=EDGE_LOOP('',(#293,#294,#295,#296));
#74=EDGE_LOOP('',(#297));
#75=EDGE_LOOP('',(#298));
#76=EDGE_LOOP('',(#299));
#77=EDGE_LOOP('',(#300));
#78=EDGE_LOOP('',(#301));
#79=EDGE_LOOP('',(#302));
#80=EDGE_LOOP('',(#303));
#81=EDGE_LOOP('',(#304));
#82=EDGE_LOOP('',(#305,#306,#307,#308));
#83=EDGE_LOOP('',(#309,#310,#311,#312,#313,#314,#315,#316));
#84=EDGE_LOOP('',(#317,#318,#319,#320));
#85=EDGE_LOOP('',(#321));
#86=EDGE_LOOP('',(#322));
#87=EDGE_LOOP('',(#323));
#88=EDGE_LOOP('',(#324));
#89=LINE('',#491,#117);
#90=LINE('',#494,#118);
#91=LINE('',#497,#119);
#92=LINE('',#499,#120);
#93=LINE('',#500,#121);
#94=LINE('',#503,#122);
#95=LINE('',#507,#123);
#96=LINE('',#511,#124);
#97=LINE('',#515,#125);
#98=LINE('',#517,#126);
#99=LINE('',#519,#127);
#100=LINE('',#520,#128);
#101=LINE('',#532,#129);
#102=LINE('',#535,#130);
#103=LINE('',#536,#131);
#104=LINE('',#540,#132);
#105=LINE('',#543,#133);
#106=LINE('',#544,#134);
#107=LINE('',#548,#135);
#108=LINE('',#552,#136);
#109=LINE('',#553,#137);
#110=LINE('',#554,#138);
#111=LINE('',#557,#139);
#112=LINE('',#558,#140);
#113=LINE('',#561,#141);
#114=LINE('',#562,#142);
#115=LINE('',#564,#143);
#116=LINE('',#578,#144);
#117=VECTOR('',#393,0.125);
#118=VECTOR('',#396,0.125);
#119=VECTOR('',#399,3.38);
#120=VECTOR('',#400,0.125);
#121=VECTOR('',#401,3.38);
#122=VECTOR('',#404,3.38);
#123=VECTOR('',#407,3.38);
#124=VECTOR('',#410,3.38);
#125=VECTOR('',#413,2.5);
#126=VECTOR('',#414,2.5);
#127=VECTOR('',#415,2.5);
#128=VECTOR('',#416,2.5);
#129=VECTOR('',#429,0.125);
#130=VECTOR('',#432,0.125);
#131=VECTOR('',#433,3.38);
#132=VECTOR('',#438,0.125);
#133=VECTOR('',#441,0.125);
#134=VECTOR('',#442,3.38);
#135=VECTOR('',#447,0.125);
#136=VECTOR('',#450,2.5);
#137=VECTOR('',#451,0.125);
#138=VECTOR('',#452,0.125);
#139=VECTOR('',#455,2.5);
#140=VECTOR('',#456,0.125);
#141=VECTOR('',#459,2.5);
#142=VECTOR('',#460,0.125);
#143=VECTOR('',#463,2.5);
#144=VECTOR('',#482,3.38);
#145=CIRCLE('',#354,0.25);
#146=CIRCLE('',#355,0.25);
#147=CIRCLE('',#358,0.25);
#148=CIRCLE('',#359,0.25);
#149=CIRCLE('',#360,0.25);
#150=CIRCLE('',#361,0.140625);
#151=CIRCLE('',#362,0.140625);
#152=CIRCLE('',#363,0.140625);
#153=CIRCLE('',#364,0.140625);
#154=CIRCLE('',#366,0.25);
#155=CIRCLE('',#369,0.25);
#156=CIRCLE('',#372,0.25);
#157=CIRCLE('',#378,0.140625);
#158=CIRCLE('',#380,0.140625);
#159=CIRCLE('',#382,0.140625);
#160=CIRCLE('',#384,0.140625);
#161=VERTEX_POINT('',#487);
#162=VERTEX_POINT('',#488);
#163=VERTEX_POINT('',#490);
#164=VERTEX_POINT('',#492);
#165=VERTEX_POINT('',#496);
#166=VERTEX_POINT('',#498);
#167=VERTEX_POINT('',#502);
#168=VERTEX_POINT('',#504);
#169=VERTEX_POINT('',#506);
#170=VERTEX_POINT('',#508);
#171=VERTEX_POINT('',#510);
#172=VERTEX_POINT('',#513);
#173=VERTEX_POINT('',#514);
#174=VERTEX_POINT('',#516);
#175=VERTEX_POINT('',#518);
#176=VERTEX_POINT('',#521);
#177=VERTEX_POINT('',#523);
#178=VERTEX_POINT('',#525);
#179=VERTEX_POINT('',#527);
#180=VERTEX_POINT('',#530);
#181=VERTEX_POINT('',#534);
#182=VERTEX_POINT('',#538);
#183=VERTEX_POINT('',#542);
#184=VERTEX_POINT('',#546);
#185=VERTEX_POINT('',#550);
#186=VERTEX_POINT('',#551);
#187=VERTEX_POINT('',#556);
#188=VERTEX_POINT('',#560);
#189=VERTEX_POINT('',#566);
#190=VERTEX_POINT('',#569);
#191=VERTEX_POINT('',#572);
#192=VERTEX_POINT('',#575);
#193=EDGE_CURVE('',#161,#162,#145,.T.);
#194=EDGE_CURVE('',#162,#163,#89,.T.);
#195=EDGE_CURVE('',#163,#164,#146,.T.);
#196=EDGE_CURVE('',#164,#161,#90,.T.);
#197=EDGE_CURVE('',#164,#165,#91,.T.);
#198=EDGE_CURVE('',#166,#165,#92,.T.);
#199=EDGE_CURVE('',#166,#161,#93,.T.);
#200=EDGE_CURVE('',#167,#163,#94,.T.);
#201=EDGE_CURVE('',#168,#167,#147,.T.);
#202=EDGE_CURVE('',#169,#168,#95,.T.);
#203=EDGE_CURVE('',#170,#169,#148,.T.);
#204=EDGE_CURVE('',#171,#170,#96,.T.);
#205=EDGE_CURVE('',#165,#171,#149,.T.);
#206=EDGE_CURVE('',#172,#173,#97,.T.);
#207=EDGE_CURVE('',#173,#174,#98,.T.);
#208=EDGE_CURVE('',#174,#175,#99,.T.);
#209=EDGE_CURVE('',#175,#172,#100,.T.);
#210=EDGE_CURVE('',#176,#176,#150,.T.);
#211=EDGE_CURVE('',#177,#177,#151,.T.);
#212=EDGE_CURVE('',#178,#178,#152,.T.);
#213=EDGE_CURVE('',#179,#179,#153,.T.);
#214=EDGE_CURVE('',#180,#166,#154,.T.);
#215=EDGE_CURVE('',#171,#180,#101,.T.);
#216=EDGE_CURVE('',#181,#170,#102,.T.);
#217=EDGE_CURVE('',#181,#180,#103,.T.);
#218=EDGE_CURVE('',#182,#181,#155,.T.);
#219=EDGE_CURVE('',#169,#182,#104,.T.);
#220=EDGE_CURVE('',#183,#168,#105,.T.);
#221=EDGE_CURVE('',#183,#182,#106,.T.);
#222=EDGE_CURVE('',#184,#183,#156,.T.);
#223=EDGE_CURVE('',#167,#184,#107,.T.);
#224=EDGE_CURVE('',#185,#186,#108,.T.);
#225=EDGE_CURVE('',#173,#185,#109,.T.);
#226=EDGE_CURVE('',#172,#186,#110,.T.);
#227=EDGE_CURVE('',#186,#187,#111,.T.);
#228=EDGE_CURVE('',#175,#187,#112,.T.);
#229=EDGE_CURVE('',#187,#188,#113,.T.);
#230=EDGE_CURVE('',#174,#188,#114,.T.);
#231=EDGE_CURVE('',#188,#185,#115,.T.);
#232=EDGE_CURVE('',#189,#189,#157,.T.);
#233=EDGE_CURVE('',#190,#190,#158,.T.);
#234=EDGE_CURVE('',#191,#191,#159,.T.);
#235=EDGE_CURVE('',#192,#192,#160,.T.);
#236=EDGE_CURVE('',#162,#184,#116,.T.);
#237=ORIENTED_EDGE('',*,*,#193,.T.);
#238=ORIENTED_EDGE('',*,*,#194,.T.);
#239=ORIENTED_EDGE('',*,*,#195,.T.);
#240=ORIENTED_EDGE('',*,*,#196,.T.);
#241=ORIENTED_EDGE('',*,*,#196,.F.);
#242=ORIENTED_EDGE('',*,*,#197,.T.);
#243=ORIENTED_EDGE('',*,*,#198,.F.);
#244=ORIENTED_EDGE('',*,*,#199,.T.);
#245=ORIENTED_EDGE('',*,*,#195,.F.);
#246=ORIENTED_EDGE('',*,*,#200,.F.);
#247=ORIENTED_EDGE('',*,*,#201,.F.);
#248=ORIENTED_EDGE('',*,*,#202,.F.);
#249=ORIENTED_EDGE('',*,*,#203,.F.);
#250=ORIENTED_EDGE('',*,*,#204,.F.);
#251=ORIENTED_EDGE('',*,*,#205,.F.);
#252=ORIENTED_EDGE('',*,*,#197,.F.);
#253=ORIENTED_EDGE('',*,*,#206,.T.);
#254=ORIENTED_EDGE('',*,*,#207,.T.);
#255=ORIENTED_EDGE('',*,*,#208,.T.);
#256=ORIENTED_EDGE('',*,*,#209,.T.);
#257=ORIENTED_EDGE('',*,*,#210,.T.);
#258=ORIENTED_EDGE('',*,*,#211,.T.);
#259=ORIENTED_EDGE('',*,*,#212,.T.);
#260=ORIENTED_EDGE('',*,*,#213,.T.);
#261=ORIENTED_EDGE('',*,*,#214,.T.);
#262=ORIENTED_EDGE('',*,*,#198,.T.);
#263=ORIENTED_EDGE('',*,*,#205,.T.);
#264=ORIENTED_EDGE('',*,*,#215,.T.);
#265=ORIENTED_EDGE('',*,*,#215,.F.);
#266=ORIENTED_EDGE('',*,*,#204,.T.);
#267=ORIENTED_EDGE('',*,*,#216,.F.);
#268=ORIENTED_EDGE('',*,*,#217,.T.);
#269=ORIENTED_EDGE('',*,*,#218,.T.);
#270=ORIENTED_EDGE('',*,*,#216,.T.);
#271=ORIENTED_EDGE('',*,*,#203,.T.);
#272=ORIENTED_EDGE('',*,*,#219,.T.);
#273=ORIENTED_EDGE('',*,*,#219,.F.);
#274=ORIENTED_EDGE('',*,*,#202,.T.);
#275=ORIENTED_EDGE('',*,*,#220,.F.);
#276=ORIENTED_EDGE('',*,*,#221,.T.);
#277=ORIENTED_EDGE('',*,*,#222,.T.);
#278=ORIENTED_EDGE('',*,*,#220,.T.);
#279=ORIENTED_EDGE('',*,*,#201,.T.);
#280=ORIENTED_EDGE('',*,*,#223,.T.);
#281=ORIENTED_EDGE('',*,*,#224,.F.);
#282=ORIENTED_EDGE('',*,*,#225,.F.);
#283=ORIENTED_EDGE('',*,*,#206,.F.);
#284=ORIENTED_EDGE('',*,*,#226,.T.);
#285=ORIENTED_EDGE('',*,*,#227,.F.);
#286=ORIENTED_EDGE('',*,*,#226,.F.);
#287=ORIENTED_EDGE('',*,*,#209,.F.);
#288=ORIENTED_EDGE('',*,*,#228,.T.);
#289=ORIENTED_EDGE('',*,*,#229,.F.);
#290=ORIENTED_EDGE('',*,*,#228,.F.);
#291=ORIENTED_EDGE('',*,*,#208,.F.);
#292=ORIENTED_EDGE('',*,*,#230,.T.);
#293=ORIENTED_EDGE('',*,*,#231,.F.);
#294=ORIENTED_EDGE('',*,*,#230,.F.);
#295=ORIENTED_EDGE('',*,*,#207,.F.);
#296=ORIENTED_EDGE('',*,*,#225,.T.);
#297=ORIENTED_EDGE('',*,*,#232,.F.);
#298=ORIENTED_EDGE('',*,*,#210,.F.);
#299=ORIENTED_EDGE('',*,*,#233,.F.);
#300=ORIENTED_EDGE('',*,*,#211,.F.);
#301=ORIENTED_EDGE('',*,*,#234,.F.);
#302=ORIENTED_EDGE('',*,*,#212,.F.);
#303=ORIENTED_EDGE('',*,*,#235,.F.);
#304=ORIENTED_EDGE('',*,*,#213,.F.);
#305=ORIENTED_EDGE('',*,*,#194,.F.);
#306=ORIENTED_EDGE('',*,*,#236,.T.);
#307=ORIENTED_EDGE('',*,*,#223,.F.);
#308=ORIENTED_EDGE('',*,*,#200,.T.);
#309=ORIENTED_EDGE('',*,*,#193,.F.);
#310=ORIENTED_EDGE('',*,*,#199,.F.);
#311=ORIENTED_EDGE('',*,*,#214,.F.);
#312=ORIENTED_EDGE('',*,*,#217,.F.);
#313=ORIENTED_EDGE('',*,*,#218,.F.);
#314=ORIENTED_EDGE('',*,*,#221,.F.);
#315=ORIENTED_EDGE('',*,*,#222,.F.);
#316=ORIENTED_EDGE('',*,*,#236,.F.);
#317=ORIENTED_EDGE('',*,*,#224,.T.);
#318=ORIENTED_EDGE('',*,*,#227,.T.);
#319=ORIENTED_EDGE('',*,*,#229,.T.);
#320=ORIENTED_EDGE('',*,*,#231,.T.);
#321=ORIENTED_EDGE('',*,*,#232,.T.);
#322=ORIENTED_EDGE('',*,*,#233,.T.);
#323=ORIENTED_EDGE('',*,*,#234,.T.);
#324=ORIENTED_EDGE('',*,*,#235,.T.);
#325=CYLINDRICAL_SURFACE('',#353,0.25);
#326=CYLINDRICAL_SURFACE('',#365,0.25);
#327=CYLINDRICAL_SURFACE('',#368,0.25);
#328=CYLINDRICAL_SURFACE('',#371,0.25);
#329=CYLINDRICAL_SURFACE('',#377,0.140625);
#330=CYLINDRICAL_SURFACE('',#379,0.140625);
#331=CYLINDRICAL_SURFACE('',#381,0.140625);
#332=CYLINDRICAL_SURFACE('',#383,0.140625);
#333=ADVANCED_FACE('',(#39),#325,.T.);
#334=ADVANCED_FACE('',(#40),#29,.T.);
#335=ADVANCED_FACE('',(#41,#15,#16,#17,#18,#19),#30,.F.);
#336=ADVANCED_FACE('',(#42),#326,.T.);
#337=ADVANCED_FACE('',(#43),#31,.T.);
#338=ADVANCED_FACE('',(#44),#327,.T.);
#339=ADVANCED_FACE('',(#45),#32,.T.);
#340=ADVANCED_FACE('',(#46),#328,.T.);
#341=ADVANCED_FACE('',(#47),#33,.F.);
#342=ADVANCED_FACE('',(#48),#34,.F.);
#343=ADVANCED_FACE('',(#49),#35,.F.);
#344=ADVANCED_FACE('',(#50),#36,.F.);
#345=ADVANCED_FACE('',(#51,#20),#329,.F.);
#346=ADVANCED_FACE('',(#52,#21),#330,.F.);
#347=ADVANCED_FACE('',(#53,#22),#331,.F.);
#348=ADVANCED_FACE('',(#54,#23),#332,.F.);
#349=ADVANCED_FACE('',(#55),#37,.T.);
#350=ADVANCED_FACE('',(#56,#24,#25,#26,#27,#28),#38,.T.);
#351=CLOSED_SHELL('',(#333,#334,#335,#336,#337,#338,#339,#340,#341,#342,
#343,#344,#345,#346,#347,#348,#349,#350));
#352=AXIS2_PLACEMENT_3D('placement',#485,#387,#388);
#353=AXIS2_PLACEMENT_3D('',#486,#389,#390);
#354=AXIS2_PLACEMENT_3D('',#489,#391,#392);
#355=AXIS2_PLACEMENT_3D('',#493,#394,#395);
#356=AXIS2_PLACEMENT_3D('',#495,#397,#398);
#357=AXIS2_PLACEMENT_3D('',#501,#402,#403);
#358=AXIS2_PLACEMENT_3D('',#505,#405,#406);
#359=AXIS2_PLACEMENT_3D('',#509,#408,#409);
#360=AXIS2_PLACEMENT_3D('',#512,#411,#412);
#361=AXIS2_PLACEMENT_3D('',#522,#417,#418);
#362=AXIS2_PLACEMENT_3D('',#524,#419,#420);
#363=AXIS2_PLACEMENT_3D('',#526,#421,#422);
#364=AXIS2_PLACEMENT_3D('',#528,#423,#424);
#365=AXIS2_PLACEMENT_3D('',#529,#425,#426);
#366=AXIS2_PLACEMENT_3D('',#531,#427,#428);
#367=AXIS2_PLACEMENT_3D('',#533,#430,#431);
#368=AXIS2_PLACEMENT_3D('',#537,#434,#435);
#369=AXIS2_PLACEMENT_3D('',#539,#436,#437);
#370=AXIS2_PLACEMENT_3D('',#541,#439,#440);
#371=AXIS2_PLACEMENT_3D('',#545,#443,#444);
#372=AXIS2_PLACEMENT_3D('',#547,#445,#446);
#373=AXIS2_PLACEMENT_3D('',#549,#448,#449);
#374=AXIS2_PLACEMENT_3D('',#555,#453,#454);
#375=AXIS2_PLACEMENT_3D('',#559,#457,#458);
#376=AXIS2_PLACEMENT_3D('',#563,#461,#462);
#377=AXIS2_PLACEMENT_3D('',#565,#464,#465);
#378=AXIS2_PLACEMENT_3D('',#567,#466,#467);
#379=AXIS2_PLACEMENT_3D('',#568,#468,#469);
#380=AXIS2_PLACEMENT_3D('',#570,#470,#471);
#381=AXIS2_PLACEMENT_3D('',#571,#472,#473);
#382=AXIS2_PLACEMENT_3D('',#573,#474,#475);
#383=AXIS2_PLACEMENT_3D('',#574,#476,#477);
#384=AXIS2_PLACEMENT_3D('',#576,#478,#479);
#385=AXIS2_PLACEMENT_3D('',#577,#480,#481);
#386=AXIS2_PLACEMENT_3D('',#579,#483,#484);
#387=DIRECTION('axis',(0.,0.,1.));
#388=DIRECTION('refdir',(1.,0.,0.));
#389=DIRECTION('center_axis',(0.,0.,1.));
#390=DIRECTION('ref_axis',(-0.707106781186548,-0.707106781186548,0.));
#391=DIRECTION('center_axis',(0.,0.,-1.));
#392=DIRECTION('ref_axis',(-0.707106781186548,-0.707106781186548,0.));
#393=DIRECTION('',(0.,0.,-1.));
#394=DIRECTION('center_axis',(0.,0.,1.));
#395=DIRECTION('ref_axis',(-0.707106781186548,-0.707106781186548,0.));
#396=DIRECTION('',(0.,0.,1.));
#397=DIRECTION('center_axis',(1.80245640819085E-16,-1.,0.));
#398=DIRECTION('ref_axis',(0.,0.,-1.));
#399=DIRECTION('',(1.,1.80245640819085E-16,0.));
#400=DIRECTION('',(0.,0.,-1.));
#401=DIRECTION('',(-1.,-1.80245640819085E-16,0.));
#402=DIRECTION('center_axis',(0.,0.,1.));
#403=DIRECTION('ref_axis',(1.,0.,0.));
#404=DIRECTION('',(0.,-1.,0.));
#405=DIRECTION('center_axis',(0.,0.,1.));
#406=DIRECTION('ref_axis',(-0.707106781186549,0.707106781186546,0.));
#407=DIRECTION('',(-1.,-7.20982563276341E-16,0.));
#408=DIRECTION('center_axis',(0.,0.,1.));
#409=DIRECTION('ref_axis',(0.707106781186547,0.707106781186549,0.));
#410=DIRECTION('',(2.70368461228628E-16,1.,0.));
#411=DIRECTION('center_axis',(0.,0.,1.));
#412=DIRECTION('ref_axis',(0.707106781186548,-0.707106781186548,0.));
#413=DIRECTION('',(2.79741234551221E-16,-1.,0.));
#414=DIRECTION('',(1.,0.,0.));
#415=DIRECTION('',(-1.3987061727561E-16,1.,0.));
#416=DIRECTION('',(-1.,-2.79741234551221E-16,0.));
#417=DIRECTION('center_axis',(0.,0.,1.));
#418=DIRECTION('ref_axis',(-1.,0.,0.));
#419=DIRECTION('center_axis',(0.,0.,1.));
#420=DIRECTION('ref_axis',(-1.,0.,0.));
#421=DIRECTION('center_axis',(0.,0.,1.));
#422=DIRECTION('ref_axis',(-1.,0.,0.));
#423=DIRECTION('center_axis',(0.,0.,1.));
#424=DIRECTION('ref_axis',(-1.,0.,0.));
#425=DIRECTION('center_axis',(0.,0.,1.));
#426=DIRECTION('ref_axis',(0.707106781186548,-0.707106781186548,0.));
#427=DIRECTION('center_axis',(0.,0.,-1.));
#428=DIRECTION('ref_axis',(0.707106781186548,-0.707106781186548,0.));
#429=DIRECTION('',(0.,0.,1.));
#430=DIRECTION('center_axis',(1.,-2.70368461228628E-16,0.));
#431=DIRECTION('ref_axis',(0.,0.,-1.));
#432=DIRECTION('',(0.,0.,-1.));
#433=DIRECTION('',(-2.70368461228628E-16,-1.,0.));
#434=DIRECTION('center_axis',(0.,0.,1.));
#435=DIRECTION('ref_axis',(0.707106781186547,0.707106781186549,0.));
#436=DIRECTION('center_axis',(0.,0.,-1.));
#437=DIRECTION('ref_axis',(0.707106781186547,0.707106781186549,0.));
#438=DIRECTION('',(0.,0.,1.));
#439=DIRECTION('center_axis',(-7.20982563276341E-16,1.,0.));
#440=DIRECTION('ref_axis',(0.,0.,1.));
#441=DIRECTION('',(0.,0.,-1.));
#442=DIRECTION('',(1.,7.20982563276341E-16,0.));
#443=DIRECTION('center_axis',(0.,0.,1.));
#444=DIRECTION('ref_axis',(-0.707106781186549,0.707106781186546,0.));
#445=DIRECTION('center_axis',(0.,0.,-1.));
#446=DIRECTION('ref_axis',(-0.707106781186549,0.707106781186546,0.));
#447=DIRECTION('',(0.,0.,1.));
#448=DIRECTION('center_axis',(-1.,-2.79741234551221E-16,0.));
#449=DIRECTION('ref_axis',(0.,0.,1.));
#450=DIRECTION('',(-2.79741234551221E-16,1.,0.));
#451=DIRECTION('',(0.,0.,1.));
#452=DIRECTION('',(0.,0.,1.));
#453=DIRECTION('center_axis',(-2.79741234551221E-16,1.,0.));
#454=DIRECTION('ref_axis',(0.,0.,1.));
#455=DIRECTION('',(1.,2.79741234551221E-16,0.));
#456=DIRECTION('',(0.,0.,1.));
#457=DIRECTION('center_axis',(1.,1.3987061727561E-16,0.));
#458=DIRECTION('ref_axis',(0.,0.,-1.));
#459=DIRECTION('',(1.3987061727561E-16,-1.,0.));
#460=DIRECTION('',(0.,0.,1.));
#461=DIRECTION('center_axis',(0.,-1.,0.));
#462=DIRECTION('ref_axis',(0.,0.,-1.));
#463=DIRECTION('',(-1.,0.,0.));
#464=DIRECTION('center_axis',(0.,0.,1.));
#465=DIRECTION('ref_axis',(-1.,0.,0.));
#466=DIRECTION('center_axis',(0.,0.,-1.));
#467=DIRECTION('ref_axis',(-1.,0.,0.));
#468=DIRECTION('center_axis',(0.,0.,1.));
#469=DIRECTION('ref_axis',(-1.,0.,0.));
#470=DIRECTION('center_axis',(0.,0.,-1.));
#471=DIRECTION('ref_axis',(-1.,0.,0.));
#472=DIRECTION('center_axis',(0.,0.,1.));
#473=DIRECTION('ref_axis',(-1.,0.,0.));
#474=DIRECTION('center_axis',(0.,0.,-1.));
#475=DIRECTION('ref_axis',(-1.,0.,0.));
#476=DIRECTION('center_axis',(0.,0.,1.));
#477=DIRECTION('ref_axis',(-1.,0.,0.));
#478=DIRECTION('center_axis',(0.,0.,-1.));
#479=DIRECTION('ref_axis',(-1.,0.,0.));
#480=DIRECTION('center_axis',(-1.,0.,0.));
#481=DIRECTION('ref_axis',(0.,0.,1.));
#482=DIRECTION('',(0.,1.,0.));
#483=DIRECTION('center_axis',(0.,0.,1.));
#484=DIRECTION('ref_axis',(1.,0.,0.));
#485=CARTESIAN_POINT('',(0.,0.,0.));
#486=CARTESIAN_POINT('Origin',(-1.69,-1.69,0.));
#487=CARTESIAN_POINT('',(-1.69,-1.94,0.125));
#488=CARTESIAN_POINT('',(-1.94,-1.69,0.125));
#489=CARTESIAN_POINT('Origin',(-1.69,-1.69,0.125));
#490=CARTESIAN_POINT('',(-1.94,-1.69,0.));
#491=CARTESIAN_POINT('',(-1.94,-1.69,0.));
#492=CARTESIAN_POINT('',(-1.69,-1.94,0.));
#493=CARTESIAN_POINT('Origin',(-1.69,-1.69,0.));
#494=CARTESIAN_POINT('',(-1.69,-1.94,0.));
#495=CARTESIAN_POINT('Origin',(1.94,-1.94,0.));
#496=CARTESIAN_POINT('',(1.69,-1.94,0.));
#497=CARTESIAN_POINT('',(-1.94,-1.94,0.));
#498=CARTESIAN_POINT('',(1.69,-1.94,0.125));
#499=CARTESIAN_POINT('',(1.69,-1.94,0.));
#500=CARTESIAN_POINT('',(-1.94,-1.94,0.125));
#501=CARTESIAN_POINT('Origin',(8.74191357972564E-16,1.19207912450804E-16,
0.));
#502=CARTESIAN_POINT('',(-1.94,1.69,0.));
#503=CARTESIAN_POINT('',(-1.94,1.94,0.));
#504=CARTESIAN_POINT('',(-1.69,1.94,0.));
#505=CARTESIAN_POINT('Origin',(-1.69,1.69,0.));
#506=CARTESIAN_POINT('',(1.69,1.94,0.));
#507=CARTESIAN_POINT('',(1.94,1.94,0.));
#508=CARTESIAN_POINT('',(1.94,1.69,0.));
#509=CARTESIAN_POINT('Origin',(1.69,1.69,0.));
#510=CARTESIAN_POINT('',(1.94,-1.69,0.));
#511=CARTESIAN_POINT('',(1.94,-1.94,0.));
#512=CARTESIAN_POINT('Origin',(1.69,-1.69,0.));
#513=CARTESIAN_POINT('',(-1.25,1.25,0.));
#514=CARTESIAN_POINT('',(-1.25,-1.25,0.));
#515=CARTESIAN_POINT('',(-1.25,-0.625,0.));
#516=CARTESIAN_POINT('',(1.25,-1.25,0.));
#517=CARTESIAN_POINT('',(0.625,-1.25,0.));
#518=CARTESIAN_POINT('',(1.25,1.25,0.));
#519=CARTESIAN_POINT('',(1.25,0.625,0.));
#520=CARTESIAN_POINT('',(-0.625,1.25,0.));
#521=CARTESIAN_POINT('',(-1.419375,1.56,0.));
#522=CARTESIAN_POINT('Origin',(-1.56,1.56,0.));
#523=CARTESIAN_POINT('',(-1.419375,-1.56,0.));
#524=CARTESIAN_POINT('Origin',(-1.56,-1.56,0.));
#525=CARTESIAN_POINT('',(1.700625,-1.56,0.));
#526=CARTESIAN_POINT('Origin',(1.56,-1.56,0.));
#527=CARTESIAN_POINT('',(1.700625,1.56,0.));
#528=CARTESIAN_POINT('Origin',(1.56,1.56,0.));
#529=CARTESIAN_POINT('Origin',(1.69,-1.69,0.));
#530=CARTESIAN_POINT('',(1.94,-1.69,0.125));
#531=CARTESIAN_POINT('Origin',(1.69,-1.69,0.125));
#532=CARTESIAN_POINT('',(1.94,-1.69,0.));
#533=CARTESIAN_POINT('Origin',(1.94,1.94,0.));
#534=CARTESIAN_POINT('',(1.94,1.69,0.125));
#535=CARTESIAN_POINT('',(1.94,1.69,0.));
#536=CARTESIAN_POINT('',(1.94,-1.94,0.125));
#537=CARTESIAN_POINT('Origin',(1.69,1.69,0.));
#538=CARTESIAN_POINT('',(1.69,1.94,0.125));
#539=CARTESIAN_POINT('Origin',(1.69,1.69,0.125));
#540=CARTESIAN_POINT('',(1.69,1.94,0.));
#541=CARTESIAN_POINT('Origin',(-1.94,1.94,0.));
#542=CARTESIAN_POINT('',(-1.69,1.94,0.125));
#543=CARTESIAN_POINT('',(-1.69,1.94,0.));
#544=CARTESIAN_POINT('',(1.94,1.94,0.125));
#545=CARTESIAN_POINT('Origin',(-1.69,1.69,0.));
#546=CARTESIAN_POINT('',(-1.94,1.69,0.125));
#547=CARTESIAN_POINT('Origin',(-1.69,1.69,0.125));
#548=CARTESIAN_POINT('',(-1.94,1.69,0.));
#549=CARTESIAN_POINT('Origin',(-1.25,-1.25,0.));
#550=CARTESIAN_POINT('',(-1.25,-1.25,0.125));
#551=CARTESIAN_POINT('',(-1.25,1.25,0.125));
#552=CARTESIAN_POINT('',(-1.25,-0.625,0.125));
#553=CARTESIAN_POINT('',(-1.25,-1.25,0.));
#554=CARTESIAN_POINT('',(-1.25,1.25,0.));
#555=CARTESIAN_POINT('Origin',(-1.25,1.25,0.));
#556=CARTESIAN_POINT('',(1.25,1.25,0.125));
#557=CARTESIAN_POINT('',(-0.625,1.25,0.125));
#558=CARTESIAN_POINT('',(1.25,1.25,0.));
#559=CARTESIAN_POINT('Origin',(1.25,1.25,0.));
#560=CARTESIAN_POINT('',(1.25,-1.25,0.125));
#561=CARTESIAN_POINT('',(1.25,0.625,0.125));
#562=CARTESIAN_POINT('',(1.25,-1.25,0.));
#563=CARTESIAN_POINT('Origin',(1.25,-1.25,0.));
#564=CARTESIAN_POINT('',(0.625,-1.25,0.125));
#565=CARTESIAN_POINT('Origin',(-1.56,1.56,0.));
#566=CARTESIAN_POINT('',(-1.419375,1.56,0.125));
#567=CARTESIAN_POINT('Origin',(-1.56,1.56,0.125));
#568=CARTESIAN_POINT('Origin',(-1.56,-1.56,0.));
#569=CARTESIAN_POINT('',(-1.419375,-1.56,0.125));
#570=CARTESIAN_POINT('Origin',(-1.56,-1.56,0.125));
#571=CARTESIAN_POINT('Origin',(1.56,-1.56,0.));
#572=CARTESIAN_POINT('',(1.700625,-1.56,0.125));
#573=CARTESIAN_POINT('Origin',(1.56,-1.56,0.125));
#574=CARTESIAN_POINT('Origin',(1.56,1.56,0.));
#575=CARTESIAN_POINT('',(1.700625,1.56,0.125));
#576=CARTESIAN_POINT('Origin',(1.56,1.56,0.125));
#577=CARTESIAN_POINT('Origin',(-1.94,-1.94,0.));
#578=CARTESIAN_POINT('',(-1.94,1.94,0.125));
#579=CARTESIAN_POINT('Origin',(8.74191357972564E-16,1.11260718287417E-16,
0.125));
#580=UNCERTAINTY_MEASURE_WITH_UNIT(LENGTH_MEASURE(0.000393700787401575),
#584,'DISTANCE_ACCURACY_VALUE',
'Maximum model space distance between geometric entities at asserted c
onnectivities');
#581=UNCERTAINTY_MEASURE_WITH_UNIT(LENGTH_MEASURE(1.E-6),#585,
'DISTANCE_ACCURACY_VALUE',
'Maximum model space distance between geometric entities at asserted c
onnectivities');
#582=(
GEOMETRIC_REPRESENTATION_CONTEXT(3)
GLOBAL_UNCERTAINTY_ASSIGNED_CONTEXT((#580))
GLOBAL_UNIT_ASSIGNED_CONTEXT((#584,#590,#587))
REPRESENTATION_CONTEXT('','3D')
);
#583=(
GEOMETRIC_REPRESENTATION_CONTEXT(3)
GLOBAL_UNCERTAINTY_ASSIGNED_CONTEXT((#581))
GLOBAL_UNIT_ASSIGNED_CONTEXT((#585,#590,#587))
REPRESENTATION_CONTEXT('','3D')
);
#584=(
CONVERSION_BASED_UNIT('__CONSTANT UNIT inch',#586)
LENGTH_UNIT()
NAMED_UNIT(#589)
);
#585=(
LENGTH_UNIT()
NAMED_UNIT(*)
SI_UNIT(.MILLI.,.METRE.)
);
#586=LENGTH_MEASURE_WITH_UNIT(LENGTH_MEASURE(25.4),#585);
#587=(
NAMED_UNIT(*)
SI_UNIT($,.STERADIAN.)
SOLID_ANGLE_UNIT()
);
#588=DIMENSIONAL_EXPONENTS(0.,0.,0.,0.,0.,0.,0.);
#589=DIMENSIONAL_EXPONENTS(1.,0.,0.,0.,0.,0.,0.);
#590=(
CONVERSION_BASED_UNIT('degree',#592)
NAMED_UNIT(#588)
PLANE_ANGLE_UNIT()
);
#591=(
NAMED_UNIT(*)
PLANE_ANGLE_UNIT()
SI_UNIT($,.RADIAN.)
);
#592=PLANE_ANGLE_MEASURE_WITH_UNIT(PLANE_ANGLE_MEASURE(0.01745329252),#591);
#593=SHAPE_DEFINITION_REPRESENTATION(#594,#595);
#594=PRODUCT_DEFINITION_SHAPE('',$,#597);
#595=SHAPE_REPRESENTATION('',(#352),#582);
#596=PRODUCT_DEFINITION_CONTEXT('part definition',#601,'design');
#597=PRODUCT_DEFINITION('JWA','JWA',#598,#596);
#598=PRODUCT_DEFINITION_FORMATION('',$,#603);
#599=PRODUCT_RELATED_PRODUCT_CATEGORY('JWA','JWA',(#603));
#600=APPLICATION_PROTOCOL_DEFINITION('international standard',
'automotive_design',2009,#601);
#601=APPLICATION_CONTEXT(
'Core Data for Automotive Mechanical Design Process');
#602=PRODUCT_CONTEXT('part definition',#601,'mechanical');
#603=PRODUCT('JWA','JWA',$,(#602));
#604=PRESENTATION_STYLE_ASSIGNMENT((#605));
#605=SURFACE_STYLE_USAGE(.BOTH.,#606);
#606=SURFACE_SIDE_STYLE('',(#607));
#607=SURFACE_STYLE_FILL_AREA(#608);
#608=FILL_AREA_STYLE('',(#609));
#609=FILL_AREA_STYLE_COLOUR('',#610);
#610=COLOUR_RGB('',0.63921568627451,0.63921568627451,0.686274509803922);
ENDSEC;
END-ISO-10303-21;
