ISO-10303-21;
HEADER;
/* Generated by software containing ST-Developer
 * from STEP Tools, Inc. (www.steptools.com) 
 */

FILE_DESCRIPTION(
/* description */ ('JW, DROP HANGER, CRS, 4X4'),
/* implementation_level */ '2;1');

FILE_NAME(
/* name */ 
'C:\\Wiegmann\\W-Projects\\Wyatt\\JW_FITTINGS\\JWD\\DXF, STP, PDF\\JWD
4.stp',
/* time_stamp */ '2017-05-23T15:52:11-05:00',
/* author */ ('wford'),
/* organization */ (''),
/* preprocessor_version */ 'ST-DEVELOPER v16.1',
/* originating_system */ 'Autodesk Inventor 2016',
/* authorisation */ '');

FILE_SCHEMA (('AUTOMOTIVE_DESIGN { 1 0 10303 214 3 1 1 }'));
ENDSEC;

DATA;
#10=MECHANICAL_DESIGN_GEOMETRIC_PRESENTATION_REPRESENTATION('',(#13),#577);
#11=SHAPE_REPRESENTATION_RELATIONSHIP('SRR','None',#589,#12);
#12=ADVANCED_BREP_SHAPE_REPRESENTATION('',(#14),#576);
#13=STYLED_ITEM('',(#598),#14);
#14=MANIFOLD_SOLID_BREP('Solid1',#349);
#15=PLANE('',#372);
#16=PLANE('',#373);
#17=PLANE('',#377);
#18=PLANE('',#378);
#19=PLANE('',#379);
#20=PLANE('',#380);
#21=PLANE('',#381);
#22=PLANE('',#382);
#23=PLANE('',#383);
#24=PLANE('',#384);
#25=LINE('',#517,#51);
#26=LINE('',#520,#52);
#27=LINE('',#523,#53);
#28=LINE('',#525,#54);
#29=LINE('',#526,#55);
#30=LINE('',#529,#56);
#31=LINE('',#531,#57);
#32=LINE('',#533,#58);
#33=LINE('',#535,#59);
#34=LINE('',#537,#60);
#35=LINE('',#539,#61);
#36=LINE('',#541,#62);
#37=LINE('',#545,#63);
#38=LINE('',#549,#64);
#39=LINE('',#550,#65);
#40=LINE('',#553,#66);
#41=LINE('',#555,#67);
#42=LINE('',#556,#68);
#43=LINE('',#559,#69);
#44=LINE('',#560,#70);
#45=LINE('',#563,#71);
#46=LINE('',#564,#72);
#47=LINE('',#566,#73);
#48=LINE('',#569,#74);
#49=LINE('',#570,#75);
#50=LINE('',#572,#76);
#51=VECTOR('',#427,0.125);
#52=VECTOR('',#430,0.125);
#53=VECTOR('',#433,10.25);
#54=VECTOR('',#434,0.125);
#55=VECTOR('',#435,10.25);
#56=VECTOR('',#438,5.125);
#57=VECTOR('',#439,0.813);
#58=VECTOR('',#440,4.562);
#59=VECTOR('',#441,9.124);
#60=VECTOR('',#442,4.562);
#61=VECTOR('',#443,0.813);
#62=VECTOR('',#444,5.125);
#63=VECTOR('',#449,0.125);
#64=VECTOR('',#454,0.125);
#65=VECTOR('',#455,5.125);
#66=VECTOR('',#458,0.125);
#67=VECTOR('',#459,9.124);
#68=VECTOR('',#460,0.125);
#69=VECTOR('',#463,4.562);
#70=VECTOR('',#464,0.125);
#71=VECTOR('',#467,0.125);
#72=VECTOR('',#468,4.562);
#73=VECTOR('',#471,0.813);
#74=VECTOR('',#474,0.125);
#75=VECTOR('',#475,0.813);
#76=VECTOR('',#478,5.125);
#77=FACE_BOUND('',#114,.T.);
#78=FACE_BOUND('',#116,.T.);
#79=FACE_BOUND('',#118,.T.);
#80=FACE_BOUND('',#120,.T.);
#81=FACE_BOUND('',#122,.T.);
#82=FACE_BOUND('',#124,.T.);
#83=FACE_BOUND('',#128,.T.);
#84=FACE_BOUND('',#129,.T.);
#85=FACE_BOUND('',#130,.T.);
#86=FACE_BOUND('',#131,.T.);
#87=FACE_BOUND('',#132,.T.);
#88=FACE_BOUND('',#133,.T.);
#89=FACE_BOUND('',#143,.T.);
#90=FACE_BOUND('',#144,.T.);
#91=FACE_BOUND('',#145,.T.);
#92=FACE_BOUND('',#146,.T.);
#93=FACE_BOUND('',#147,.T.);
#94=FACE_BOUND('',#148,.T.);
#95=FACE_OUTER_BOUND('',#113,.T.);
#96=FACE_OUTER_BOUND('',#115,.T.);
#97=FACE_OUTER_BOUND('',#117,.T.);
#98=FACE_OUTER_BOUND('',#119,.T.);
#99=FACE_OUTER_BOUND('',#121,.T.);
#100=FACE_OUTER_BOUND('',#123,.T.);
#101=FACE_OUTER_BOUND('',#125,.T.);
#102=FACE_OUTER_BOUND('',#126,.T.);
#103=FACE_OUTER_BOUND('',#127,.T.);
#104=FACE_OUTER_BOUND('',#134,.T.);
#105=FACE_OUTER_BOUND('',#135,.T.);
#106=FACE_OUTER_BOUND('',#136,.T.);
#107=FACE_OUTER_BOUND('',#137,.T.);
#108=FACE_OUTER_BOUND('',#138,.T.);
#109=FACE_OUTER_BOUND('',#139,.T.);
#110=FACE_OUTER_BOUND('',#140,.T.);
#111=FACE_OUTER_BOUND('',#141,.T.);
#112=FACE_OUTER_BOUND('',#142,.T.);
#113=EDGE_LOOP('',(#239));
#114=EDGE_LOOP('',(#240));
#115=EDGE_LOOP('',(#241));
#116=EDGE_LOOP('',(#242));
#117=EDGE_LOOP('',(#243));
#118=EDGE_LOOP('',(#244));
#119=EDGE_LOOP('',(#245));
#120=EDGE_LOOP('',(#246));
#121=EDGE_LOOP('',(#247));
#122=EDGE_LOOP('',(#248));
#123=EDGE_LOOP('',(#249));
#124=EDGE_LOOP('',(#250));
#125=EDGE_LOOP('',(#251,#252,#253,#254));
#126=EDGE_LOOP('',(#255,#256,#257,#258));
#127=EDGE_LOOP('',(#259,#260,#261,#262,#263,#264,#265,#266,#267,#268));
#128=EDGE_LOOP('',(#269));
#129=EDGE_LOOP('',(#270));
#130=EDGE_LOOP('',(#271));
#131=EDGE_LOOP('',(#272));
#132=EDGE_LOOP('',(#273));
#133=EDGE_LOOP('',(#274));
#134=EDGE_LOOP('',(#275,#276,#277,#278));
#135=EDGE_LOOP('',(#279,#280,#281,#282));
#136=EDGE_LOOP('',(#283,#284,#285,#286));
#137=EDGE_LOOP('',(#287,#288,#289,#290));
#138=EDGE_LOOP('',(#291,#292,#293,#294));
#139=EDGE_LOOP('',(#295,#296,#297,#298));
#140=EDGE_LOOP('',(#299,#300,#301,#302));
#141=EDGE_LOOP('',(#303,#304,#305,#306));
#142=EDGE_LOOP('',(#307,#308,#309,#310,#311,#312,#313,#314,#315,#316));
#143=EDGE_LOOP('',(#317));
#144=EDGE_LOOP('',(#318));
#145=EDGE_LOOP('',(#319));
#146=EDGE_LOOP('',(#320));
#147=EDGE_LOOP('',(#321));
#148=EDGE_LOOP('',(#322));
#149=CIRCLE('',#352,0.14);
#150=CIRCLE('',#353,0.14);
#151=CIRCLE('',#355,0.14);
#152=CIRCLE('',#356,0.14);
#153=CIRCLE('',#358,0.14);
#154=CIRCLE('',#359,0.14);
#155=CIRCLE('',#361,0.14);
#156=CIRCLE('',#362,0.14);
#157=CIRCLE('',#364,0.14);
#158=CIRCLE('',#365,0.14);
#159=CIRCLE('',#367,0.14);
#160=CIRCLE('',#368,0.14);
#161=CIRCLE('',#370,0.25);
#162=CIRCLE('',#371,0.25);
#163=CIRCLE('',#374,0.25);
#164=CIRCLE('',#376,0.25);
#165=VERTEX_POINT('',#483);
#166=VERTEX_POINT('',#485);
#167=VERTEX_POINT('',#488);
#168=VERTEX_POINT('',#490);
#169=VERTEX_POINT('',#493);
#170=VERTEX_POINT('',#495);
#171=VERTEX_POINT('',#498);
#172=VERTEX_POINT('',#500);
#173=VERTEX_POINT('',#503);
#174=VERTEX_POINT('',#505);
#175=VERTEX_POINT('',#508);
#176=VERTEX_POINT('',#510);
#177=VERTEX_POINT('',#513);
#178=VERTEX_POINT('',#514);
#179=VERTEX_POINT('',#516);
#180=VERTEX_POINT('',#518);
#181=VERTEX_POINT('',#522);
#182=VERTEX_POINT('',#524);
#183=VERTEX_POINT('',#528);
#184=VERTEX_POINT('',#530);
#185=VERTEX_POINT('',#532);
#186=VERTEX_POINT('',#534);
#187=VERTEX_POINT('',#536);
#188=VERTEX_POINT('',#538);
#189=VERTEX_POINT('',#540);
#190=VERTEX_POINT('',#544);
#191=VERTEX_POINT('',#548);
#192=VERTEX_POINT('',#552);
#193=VERTEX_POINT('',#554);
#194=VERTEX_POINT('',#558);
#195=VERTEX_POINT('',#562);
#196=VERTEX_POINT('',#568);
#197=EDGE_CURVE('',#165,#165,#149,.T.);
#198=EDGE_CURVE('',#166,#166,#150,.T.);
#199=EDGE_CURVE('',#167,#167,#151,.T.);
#200=EDGE_CURVE('',#168,#168,#152,.T.);
#201=EDGE_CURVE('',#169,#169,#153,.T.);
#202=EDGE_CURVE('',#170,#170,#154,.T.);
#203=EDGE_CURVE('',#171,#171,#155,.T.);
#204=EDGE_CURVE('',#172,#172,#156,.T.);
#205=EDGE_CURVE('',#173,#173,#157,.T.);
#206=EDGE_CURVE('',#174,#174,#158,.T.);
#207=EDGE_CURVE('',#175,#175,#159,.T.);
#208=EDGE_CURVE('',#176,#176,#160,.T.);
#209=EDGE_CURVE('',#177,#178,#161,.T.);
#210=EDGE_CURVE('',#178,#179,#25,.T.);
#211=EDGE_CURVE('',#179,#180,#162,.T.);
#212=EDGE_CURVE('',#180,#177,#26,.T.);
#213=EDGE_CURVE('',#178,#181,#27,.T.);
#214=EDGE_CURVE('',#182,#181,#28,.T.);
#215=EDGE_CURVE('',#182,#179,#29,.T.);
#216=EDGE_CURVE('',#183,#177,#30,.T.);
#217=EDGE_CURVE('',#184,#183,#31,.T.);
#218=EDGE_CURVE('',#184,#185,#32,.T.);
#219=EDGE_CURVE('',#185,#186,#33,.T.);
#220=EDGE_CURVE('',#186,#187,#34,.T.);
#221=EDGE_CURVE('',#188,#187,#35,.T.);
#222=EDGE_CURVE('',#189,#188,#36,.T.);
#223=EDGE_CURVE('',#181,#189,#163,.T.);
#224=EDGE_CURVE('',#189,#190,#37,.T.);
#225=EDGE_CURVE('',#190,#182,#164,.T.);
#226=EDGE_CURVE('',#191,#188,#38,.T.);
#227=EDGE_CURVE('',#191,#190,#39,.T.);
#228=EDGE_CURVE('',#192,#185,#40,.T.);
#229=EDGE_CURVE('',#193,#192,#41,.T.);
#230=EDGE_CURVE('',#193,#186,#42,.T.);
#231=EDGE_CURVE('',#194,#193,#43,.T.);
#232=EDGE_CURVE('',#187,#194,#44,.T.);
#233=EDGE_CURVE('',#195,#184,#45,.T.);
#234=EDGE_CURVE('',#192,#195,#46,.T.);
#235=EDGE_CURVE('',#194,#191,#47,.T.);
#236=EDGE_CURVE('',#196,#183,#48,.T.);
#237=EDGE_CURVE('',#196,#195,#49,.T.);
#238=EDGE_CURVE('',#180,#196,#50,.T.);
#239=ORIENTED_EDGE('',*,*,#197,.F.);
#240=ORIENTED_EDGE('',*,*,#198,.F.);
#241=ORIENTED_EDGE('',*,*,#199,.F.);
#242=ORIENTED_EDGE('',*,*,#200,.F.);
#243=ORIENTED_EDGE('',*,*,#201,.F.);
#244=ORIENTED_EDGE('',*,*,#202,.F.);
#245=ORIENTED_EDGE('',*,*,#203,.F.);
#246=ORIENTED_EDGE('',*,*,#204,.F.);
#247=ORIENTED_EDGE('',*,*,#205,.F.);
#248=ORIENTED_EDGE('',*,*,#206,.F.);
#249=ORIENTED_EDGE('',*,*,#207,.F.);
#250=ORIENTED_EDGE('',*,*,#208,.F.);
#251=ORIENTED_EDGE('',*,*,#209,.T.);
#252=ORIENTED_EDGE('',*,*,#210,.T.);
#253=ORIENTED_EDGE('',*,*,#211,.T.);
#254=ORIENTED_EDGE('',*,*,#212,.T.);
#255=ORIENTED_EDGE('',*,*,#210,.F.);
#256=ORIENTED_EDGE('',*,*,#213,.T.);
#257=ORIENTED_EDGE('',*,*,#214,.F.);
#258=ORIENTED_EDGE('',*,*,#215,.T.);
#259=ORIENTED_EDGE('',*,*,#209,.F.);
#260=ORIENTED_EDGE('',*,*,#216,.F.);
#261=ORIENTED_EDGE('',*,*,#217,.F.);
#262=ORIENTED_EDGE('',*,*,#218,.T.);
#263=ORIENTED_EDGE('',*,*,#219,.T.);
#264=ORIENTED_EDGE('',*,*,#220,.T.);
#265=ORIENTED_EDGE('',*,*,#221,.F.);
#266=ORIENTED_EDGE('',*,*,#222,.F.);
#267=ORIENTED_EDGE('',*,*,#223,.F.);
#268=ORIENTED_EDGE('',*,*,#213,.F.);
#269=ORIENTED_EDGE('',*,*,#198,.T.);
#270=ORIENTED_EDGE('',*,*,#200,.T.);
#271=ORIENTED_EDGE('',*,*,#202,.T.);
#272=ORIENTED_EDGE('',*,*,#204,.T.);
#273=ORIENTED_EDGE('',*,*,#206,.T.);
#274=ORIENTED_EDGE('',*,*,#208,.T.);
#275=ORIENTED_EDGE('',*,*,#223,.T.);
#276=ORIENTED_EDGE('',*,*,#224,.T.);
#277=ORIENTED_EDGE('',*,*,#225,.T.);
#278=ORIENTED_EDGE('',*,*,#214,.T.);
#279=ORIENTED_EDGE('',*,*,#224,.F.);
#280=ORIENTED_EDGE('',*,*,#222,.T.);
#281=ORIENTED_EDGE('',*,*,#226,.F.);
#282=ORIENTED_EDGE('',*,*,#227,.T.);
#283=ORIENTED_EDGE('',*,*,#219,.F.);
#284=ORIENTED_EDGE('',*,*,#228,.F.);
#285=ORIENTED_EDGE('',*,*,#229,.F.);
#286=ORIENTED_EDGE('',*,*,#230,.T.);
#287=ORIENTED_EDGE('',*,*,#220,.F.);
#288=ORIENTED_EDGE('',*,*,#230,.F.);
#289=ORIENTED_EDGE('',*,*,#231,.F.);
#290=ORIENTED_EDGE('',*,*,#232,.F.);
#291=ORIENTED_EDGE('',*,*,#218,.F.);
#292=ORIENTED_EDGE('',*,*,#233,.F.);
#293=ORIENTED_EDGE('',*,*,#234,.F.);
#294=ORIENTED_EDGE('',*,*,#228,.T.);
#295=ORIENTED_EDGE('',*,*,#232,.T.);
#296=ORIENTED_EDGE('',*,*,#235,.T.);
#297=ORIENTED_EDGE('',*,*,#226,.T.);
#298=ORIENTED_EDGE('',*,*,#221,.T.);
#299=ORIENTED_EDGE('',*,*,#233,.T.);
#300=ORIENTED_EDGE('',*,*,#217,.T.);
#301=ORIENTED_EDGE('',*,*,#236,.F.);
#302=ORIENTED_EDGE('',*,*,#237,.T.);
#303=ORIENTED_EDGE('',*,*,#212,.F.);
#304=ORIENTED_EDGE('',*,*,#238,.T.);
#305=ORIENTED_EDGE('',*,*,#236,.T.);
#306=ORIENTED_EDGE('',*,*,#216,.T.);
#307=ORIENTED_EDGE('',*,*,#211,.F.);
#308=ORIENTED_EDGE('',*,*,#215,.F.);
#309=ORIENTED_EDGE('',*,*,#225,.F.);
#310=ORIENTED_EDGE('',*,*,#227,.F.);
#311=ORIENTED_EDGE('',*,*,#235,.F.);
#312=ORIENTED_EDGE('',*,*,#231,.T.);
#313=ORIENTED_EDGE('',*,*,#229,.T.);
#314=ORIENTED_EDGE('',*,*,#234,.T.);
#315=ORIENTED_EDGE('',*,*,#237,.F.);
#316=ORIENTED_EDGE('',*,*,#238,.F.);
#317=ORIENTED_EDGE('',*,*,#197,.T.);
#318=ORIENTED_EDGE('',*,*,#199,.T.);
#319=ORIENTED_EDGE('',*,*,#201,.T.);
#320=ORIENTED_EDGE('',*,*,#203,.T.);
#321=ORIENTED_EDGE('',*,*,#205,.T.);
#322=ORIENTED_EDGE('',*,*,#207,.T.);
#323=CYLINDRICAL_SURFACE('',#351,0.14);
#324=CYLINDRICAL_SURFACE('',#354,0.14);
#325=CYLINDRICAL_SURFACE('',#357,0.14);
#326=CYLINDRICAL_SURFACE('',#360,0.14);
#327=CYLINDRICAL_SURFACE('',#363,0.14);
#328=CYLINDRICAL_SURFACE('',#366,0.14);
#329=CYLINDRICAL_SURFACE('',#369,0.25);
#330=CYLINDRICAL_SURFACE('',#375,0.25);
#331=ADVANCED_FACE('',(#95,#77),#323,.F.);
#332=ADVANCED_FACE('',(#96,#78),#324,.F.);
#333=ADVANCED_FACE('',(#97,#79),#325,.F.);
#334=ADVANCED_FACE('',(#98,#80),#326,.F.);
#335=ADVANCED_FACE('',(#99,#81),#327,.F.);
#336=ADVANCED_FACE('',(#100,#82),#328,.F.);
#337=ADVANCED_FACE('',(#101),#329,.T.);
#338=ADVANCED_FACE('',(#102),#15,.T.);
#339=ADVANCED_FACE('',(#103,#83,#84,#85,#86,#87,#88),#16,.T.);
#340=ADVANCED_FACE('',(#104),#330,.T.);
#341=ADVANCED_FACE('',(#105),#17,.T.);
#342=ADVANCED_FACE('',(#106),#18,.F.);
#343=ADVANCED_FACE('',(#107),#19,.F.);
#344=ADVANCED_FACE('',(#108),#20,.F.);
#345=ADVANCED_FACE('',(#109),#21,.T.);
#346=ADVANCED_FACE('',(#110),#22,.T.);
#347=ADVANCED_FACE('',(#111),#23,.T.);
#348=ADVANCED_FACE('',(#112,#89,#90,#91,#92,#93,#94),#24,.F.);
#349=CLOSED_SHELL('',(#331,#332,#333,#334,#335,#336,#337,#338,#339,#340,
#341,#342,#343,#344,#345,#346,#347,#348));
#350=AXIS2_PLACEMENT_3D('placement',#481,#385,#386);
#351=AXIS2_PLACEMENT_3D('',#482,#387,#388);
#352=AXIS2_PLACEMENT_3D('',#484,#389,#390);
#353=AXIS2_PLACEMENT_3D('',#486,#391,#392);
#354=AXIS2_PLACEMENT_3D('',#487,#393,#394);
#355=AXIS2_PLACEMENT_3D('',#489,#395,#396);
#356=AXIS2_PLACEMENT_3D('',#491,#397,#398);
#357=AXIS2_PLACEMENT_3D('',#492,#399,#400);
#358=AXIS2_PLACEMENT_3D('',#494,#401,#402);
#359=AXIS2_PLACEMENT_3D('',#496,#403,#404);
#360=AXIS2_PLACEMENT_3D('',#497,#405,#406);
#361=AXIS2_PLACEMENT_3D('',#499,#407,#408);
#362=AXIS2_PLACEMENT_3D('',#501,#409,#410);
#363=AXIS2_PLACEMENT_3D('',#502,#411,#412);
#364=AXIS2_PLACEMENT_3D('',#504,#413,#414);
#365=AXIS2_PLACEMENT_3D('',#506,#415,#416);
#366=AXIS2_PLACEMENT_3D('',#507,#417,#418);
#367=AXIS2_PLACEMENT_3D('',#509,#419,#420);
#368=AXIS2_PLACEMENT_3D('',#511,#421,#422);
#369=AXIS2_PLACEMENT_3D('',#512,#423,#424);
#370=AXIS2_PLACEMENT_3D('',#515,#425,#426);
#371=AXIS2_PLACEMENT_3D('',#519,#428,#429);
#372=AXIS2_PLACEMENT_3D('',#521,#431,#432);
#373=AXIS2_PLACEMENT_3D('',#527,#436,#437);
#374=AXIS2_PLACEMENT_3D('',#542,#445,#446);
#375=AXIS2_PLACEMENT_3D('',#543,#447,#448);
#376=AXIS2_PLACEMENT_3D('',#546,#450,#451);
#377=AXIS2_PLACEMENT_3D('',#547,#452,#453);
#378=AXIS2_PLACEMENT_3D('',#551,#456,#457);
#379=AXIS2_PLACEMENT_3D('',#557,#461,#462);
#380=AXIS2_PLACEMENT_3D('',#561,#465,#466);
#381=AXIS2_PLACEMENT_3D('',#565,#469,#470);
#382=AXIS2_PLACEMENT_3D('',#567,#472,#473);
#383=AXIS2_PLACEMENT_3D('',#571,#476,#477);
#384=AXIS2_PLACEMENT_3D('',#573,#479,#480);
#385=DIRECTION('axis',(0.,0.,1.));
#386=DIRECTION('refdir',(1.,0.,0.));
#387=DIRECTION('center_axis',(0.,0.,-1.));
#388=DIRECTION('ref_axis',(-1.,0.,0.));
#389=DIRECTION('center_axis',(0.,0.,1.));
#390=DIRECTION('ref_axis',(-1.,0.,0.));
#391=DIRECTION('center_axis',(0.,0.,-1.));
#392=DIRECTION('ref_axis',(-1.,0.,0.));
#393=DIRECTION('center_axis',(0.,0.,-1.));
#394=DIRECTION('ref_axis',(-1.,0.,0.));
#395=DIRECTION('center_axis',(0.,0.,1.));
#396=DIRECTION('ref_axis',(-1.,0.,0.));
#397=DIRECTION('center_axis',(0.,0.,-1.));
#398=DIRECTION('ref_axis',(-1.,0.,0.));
#399=DIRECTION('center_axis',(0.,0.,-1.));
#400=DIRECTION('ref_axis',(-1.,0.,0.));
#401=DIRECTION('center_axis',(0.,0.,1.));
#402=DIRECTION('ref_axis',(-1.,0.,0.));
#403=DIRECTION('center_axis',(0.,0.,-1.));
#404=DIRECTION('ref_axis',(-1.,0.,0.));
#405=DIRECTION('center_axis',(0.,0.,-1.));
#406=DIRECTION('ref_axis',(-1.,0.,0.));
#407=DIRECTION('center_axis',(0.,0.,1.));
#408=DIRECTION('ref_axis',(-1.,0.,0.));
#409=DIRECTION('center_axis',(0.,0.,-1.));
#410=DIRECTION('ref_axis',(-1.,0.,0.));
#411=DIRECTION('center_axis',(0.,0.,-1.));
#412=DIRECTION('ref_axis',(-1.,0.,0.));
#413=DIRECTION('center_axis',(0.,0.,1.));
#414=DIRECTION('ref_axis',(-1.,0.,0.));
#415=DIRECTION('center_axis',(0.,0.,-1.));
#416=DIRECTION('ref_axis',(-1.,0.,0.));
#417=DIRECTION('center_axis',(0.,0.,-1.));
#418=DIRECTION('ref_axis',(-1.,0.,0.));
#419=DIRECTION('center_axis',(0.,0.,1.));
#420=DIRECTION('ref_axis',(-1.,0.,0.));
#421=DIRECTION('center_axis',(0.,0.,-1.));
#422=DIRECTION('ref_axis',(-1.,0.,0.));
#423=DIRECTION('center_axis',(0.,0.,1.));
#424=DIRECTION('ref_axis',(-0.707106781186546,-0.707106781186549,0.));
#425=DIRECTION('center_axis',(0.,0.,-1.));
#426=DIRECTION('ref_axis',(-0.707106781186546,-0.707106781186549,0.));
#427=DIRECTION('',(0.,0.,-1.));
#428=DIRECTION('center_axis',(0.,0.,1.));
#429=DIRECTION('ref_axis',(-0.707106781186546,-0.707106781186549,0.));
#430=DIRECTION('',(0.,0.,1.));
#431=DIRECTION('center_axis',(-1.,-6.50561010584234E-17,0.));
#432=DIRECTION('ref_axis',(0.,0.,1.));
#433=DIRECTION('',(-6.50561010584234E-17,1.,0.));
#434=DIRECTION('',(0.,0.,1.));
#435=DIRECTION('',(6.50561010584234E-17,-1.,0.));
#436=DIRECTION('center_axis',(0.,0.,1.));
#437=DIRECTION('ref_axis',(1.,0.,0.));
#438=DIRECTION('',(-1.,-2.60224404233693E-16,0.));
#439=DIRECTION('',(2.27696353704482E-16,-1.,0.));
#440=DIRECTION('',(-1.,0.,0.));
#441=DIRECTION('',(-3.06599336421767E-16,1.,0.));
#442=DIRECTION('',(1.,1.53299668210884E-16,0.));
#443=DIRECTION('',(2.27696353704482E-16,-1.,0.));
#444=DIRECTION('',(1.,5.20448808467387E-16,0.));
#445=DIRECTION('center_axis',(0.,0.,-1.));
#446=DIRECTION('ref_axis',(-0.707106781186549,0.707106781186547,0.));
#447=DIRECTION('center_axis',(0.,0.,1.));
#448=DIRECTION('ref_axis',(-0.707106781186549,0.707106781186547,0.));
#449=DIRECTION('',(0.,0.,-1.));
#450=DIRECTION('center_axis',(0.,0.,1.));
#451=DIRECTION('ref_axis',(-0.707106781186549,0.707106781186547,0.));
#452=DIRECTION('center_axis',(-5.20448808467387E-16,1.,0.));
#453=DIRECTION('ref_axis',(0.,0.,1.));
#454=DIRECTION('',(0.,0.,1.));
#455=DIRECTION('',(-1.,-5.20448808467387E-16,0.));
#456=DIRECTION('center_axis',(-1.,-3.06599336421767E-16,0.));
#457=DIRECTION('ref_axis',(0.,0.,1.));
#458=DIRECTION('',(0.,0.,1.));
#459=DIRECTION('',(3.06599336421767E-16,-1.,0.));
#460=DIRECTION('',(0.,0.,1.));
#461=DIRECTION('center_axis',(-1.53299668210884E-16,1.,0.));
#462=DIRECTION('ref_axis',(0.,0.,1.));
#463=DIRECTION('',(-1.,-1.53299668210884E-16,0.));
#464=DIRECTION('',(0.,0.,-1.));
#465=DIRECTION('center_axis',(0.,-1.,0.));
#466=DIRECTION('ref_axis',(0.,0.,-1.));
#467=DIRECTION('',(0.,0.,1.));
#468=DIRECTION('',(1.,0.,0.));
#469=DIRECTION('center_axis',(1.,2.27696353704482E-16,0.));
#470=DIRECTION('ref_axis',(0.,0.,-1.));
#471=DIRECTION('',(-2.27696353704482E-16,1.,0.));
#472=DIRECTION('center_axis',(1.,2.27696353704482E-16,0.));
#473=DIRECTION('ref_axis',(0.,0.,-1.));
#474=DIRECTION('',(0.,0.,1.));
#475=DIRECTION('',(-2.27696353704482E-16,1.,0.));
#476=DIRECTION('center_axis',(2.60224404233693E-16,-1.,0.));
#477=DIRECTION('ref_axis',(0.,0.,-1.));
#478=DIRECTION('',(1.,2.60224404233693E-16,0.));
#479=DIRECTION('center_axis',(0.,0.,1.));
#480=DIRECTION('ref_axis',(1.,0.,0.));
#481=CARTESIAN_POINT('',(0.,0.,0.));
#482=CARTESIAN_POINT('Origin',(-2.3075,-4.995,0.125));
#483=CARTESIAN_POINT('',(-2.1675,-4.995,0.));
#484=CARTESIAN_POINT('Origin',(-2.3075,-4.995,0.));
#485=CARTESIAN_POINT('',(-2.1675,-4.995,0.125));
#486=CARTESIAN_POINT('Origin',(-2.3075,-4.995,0.125));
#487=CARTESIAN_POINT('Origin',(-2.3075,0.379999999999999,0.125));
#488=CARTESIAN_POINT('',(-2.1675,0.379999999999999,0.));
#489=CARTESIAN_POINT('Origin',(-2.3075,0.379999999999999,0.));
#490=CARTESIAN_POINT('',(-2.1675,0.379999999999999,0.125));
#491=CARTESIAN_POINT('Origin',(-2.3075,0.379999999999999,0.125));
#492=CARTESIAN_POINT('Origin',(-2.3075,4.995,0.125));
#493=CARTESIAN_POINT('',(-2.1675,4.995,0.));
#494=CARTESIAN_POINT('Origin',(-2.3075,4.995,0.));
#495=CARTESIAN_POINT('',(-2.1675,4.995,0.125));
#496=CARTESIAN_POINT('Origin',(-2.3075,4.995,0.125));
#497=CARTESIAN_POINT('Origin',(2.3075,4.995,0.125));
#498=CARTESIAN_POINT('',(2.4475,4.995,0.));
#499=CARTESIAN_POINT('Origin',(2.3075,4.995,0.));
#500=CARTESIAN_POINT('',(2.4475,4.995,0.125));
#501=CARTESIAN_POINT('Origin',(2.3075,4.995,0.125));
#502=CARTESIAN_POINT('Origin',(-2.3075,-0.380000000000001,0.125));
#503=CARTESIAN_POINT('',(-2.1675,-0.380000000000001,0.));
#504=CARTESIAN_POINT('Origin',(-2.3075,-0.380000000000001,0.));
#505=CARTESIAN_POINT('',(-2.1675,-0.380000000000001,0.125));
#506=CARTESIAN_POINT('Origin',(-2.3075,-0.380000000000001,0.125));
#507=CARTESIAN_POINT('Origin',(2.3075,-4.995,0.125));
#508=CARTESIAN_POINT('',(2.4475,-4.995,0.));
#509=CARTESIAN_POINT('Origin',(2.3075,-4.995,0.));
#510=CARTESIAN_POINT('',(2.4475,-4.995,0.125));
#511=CARTESIAN_POINT('Origin',(2.3075,-4.995,0.125));
#512=CARTESIAN_POINT('Origin',(-2.4375,-5.125,0.));
#513=CARTESIAN_POINT('',(-2.4375,-5.375,0.125));
#514=CARTESIAN_POINT('',(-2.6875,-5.125,0.125));
#515=CARTESIAN_POINT('Origin',(-2.4375,-5.125,0.125));
#516=CARTESIAN_POINT('',(-2.6875,-5.125,0.));
#517=CARTESIAN_POINT('',(-2.6875,-5.125,0.));
#518=CARTESIAN_POINT('',(-2.4375,-5.375,0.));
#519=CARTESIAN_POINT('Origin',(-2.4375,-5.125,0.));
#520=CARTESIAN_POINT('',(-2.4375,-5.375,0.));
#521=CARTESIAN_POINT('Origin',(-2.6875,-5.375,0.));
#522=CARTESIAN_POINT('',(-2.6875,5.125,0.125));
#523=CARTESIAN_POINT('',(-2.6875,5.375,0.125));
#524=CARTESIAN_POINT('',(-2.6875,5.125,0.));
#525=CARTESIAN_POINT('',(-2.6875,5.125,0.));
#526=CARTESIAN_POINT('',(-2.6875,5.375,0.));
#527=CARTESIAN_POINT('Origin',(0.,-6.83458698051277E-16,0.125));
#528=CARTESIAN_POINT('',(2.6875,-5.375,0.125));
#529=CARTESIAN_POINT('',(-2.6875,-5.375,0.125));
#530=CARTESIAN_POINT('',(2.6875,-4.562,0.125));
#531=CARTESIAN_POINT('',(2.6875,-5.375,0.125));
#532=CARTESIAN_POINT('',(-1.8745,-4.562,0.125));
#533=CARTESIAN_POINT('',(1.34375,-4.562,0.125));
#534=CARTESIAN_POINT('',(-1.8745,4.562,0.125));
#535=CARTESIAN_POINT('',(-1.8745,-2.281,0.125));
#536=CARTESIAN_POINT('',(2.6875,4.562,0.125));
#537=CARTESIAN_POINT('',(-0.937250000000001,4.562,0.125));
#538=CARTESIAN_POINT('',(2.6875,5.375,0.125));
#539=CARTESIAN_POINT('',(2.6875,-5.375,0.125));
#540=CARTESIAN_POINT('',(-2.4375,5.375,0.125));
#541=CARTESIAN_POINT('',(2.6875,5.375,0.125));
#542=CARTESIAN_POINT('Origin',(-2.4375,5.125,0.125));
#543=CARTESIAN_POINT('Origin',(-2.4375,5.125,0.));
#544=CARTESIAN_POINT('',(-2.4375,5.375,0.));
#545=CARTESIAN_POINT('',(-2.4375,5.375,0.));
#546=CARTESIAN_POINT('Origin',(-2.4375,5.125,0.));
#547=CARTESIAN_POINT('Origin',(-2.6875,5.375,0.));
#548=CARTESIAN_POINT('',(2.6875,5.375,0.));
#549=CARTESIAN_POINT('',(2.6875,5.375,0.));
#550=CARTESIAN_POINT('',(2.6875,5.375,0.));
#551=CARTESIAN_POINT('Origin',(-1.8745,-4.562,0.));
#552=CARTESIAN_POINT('',(-1.8745,-4.562,0.));
#553=CARTESIAN_POINT('',(-1.8745,-4.562,0.));
#554=CARTESIAN_POINT('',(-1.8745,4.562,0.));
#555=CARTESIAN_POINT('',(-1.8745,-2.281,0.));
#556=CARTESIAN_POINT('',(-1.8745,4.562,0.));
#557=CARTESIAN_POINT('Origin',(-1.8745,4.562,0.));
#558=CARTESIAN_POINT('',(2.6875,4.562,0.));
#559=CARTESIAN_POINT('',(-0.937250000000001,4.562,0.));
#560=CARTESIAN_POINT('',(2.6875,4.562,0.));
#561=CARTESIAN_POINT('Origin',(2.6875,-4.562,0.));
#562=CARTESIAN_POINT('',(2.6875,-4.562,0.));
#563=CARTESIAN_POINT('',(2.6875,-4.562,0.));
#564=CARTESIAN_POINT('',(1.34375,-4.562,0.));
#565=CARTESIAN_POINT('Origin',(2.6875,5.375,0.));
#566=CARTESIAN_POINT('',(2.6875,-5.375,0.));
#567=CARTESIAN_POINT('Origin',(2.6875,5.375,0.));
#568=CARTESIAN_POINT('',(2.6875,-5.375,0.));
#569=CARTESIAN_POINT('',(2.6875,-5.375,0.));
#570=CARTESIAN_POINT('',(2.6875,-5.375,0.));
#571=CARTESIAN_POINT('Origin',(2.6875,-5.375,0.));
#572=CARTESIAN_POINT('',(-2.6875,-5.375,0.));
#573=CARTESIAN_POINT('Origin',(0.,-7.04651215820309E-16,0.));
#574=UNCERTAINTY_MEASURE_WITH_UNIT(LENGTH_MEASURE(0.000393700787401575),
#578,'DISTANCE_ACCURACY_VALUE',
'Maximum model space distance between geometric entities at asserted c
onnectivities');
#575=UNCERTAINTY_MEASURE_WITH_UNIT(LENGTH_MEASURE(1.E-6),#579,
'DISTANCE_ACCURACY_VALUE',
'Maximum model space distance between geometric entities at asserted c
onnectivities');
#576=(
GEOMETRIC_REPRESENTATION_CONTEXT(3)
GLOBAL_UNCERTAINTY_ASSIGNED_CONTEXT((#574))
GLOBAL_UNIT_ASSIGNED_CONTEXT((#578,#584,#581))
REPRESENTATION_CONTEXT('','3D')
);
#577=(
GEOMETRIC_REPRESENTATION_CONTEXT(3)
GLOBAL_UNCERTAINTY_ASSIGNED_CONTEXT((#575))
GLOBAL_UNIT_ASSIGNED_CONTEXT((#579,#584,#581))
REPRESENTATION_CONTEXT('','3D')
);
#578=(
CONVERSION_BASED_UNIT('__CONSTANT UNIT inch',#580)
LENGTH_UNIT()
NAMED_UNIT(#583)
);
#579=(
LENGTH_UNIT()
NAMED_UNIT(*)
SI_UNIT(.MILLI.,.METRE.)
);
#580=LENGTH_MEASURE_WITH_UNIT(LENGTH_MEASURE(25.4),#579);
#581=(
NAMED_UNIT(*)
SI_UNIT($,.STERADIAN.)
SOLID_ANGLE_UNIT()
);
#582=DIMENSIONAL_EXPONENTS(0.,0.,0.,0.,0.,0.,0.);
#583=DIMENSIONAL_EXPONENTS(1.,0.,0.,0.,0.,0.,0.);
#584=(
CONVERSION_BASED_UNIT('degree',#586)
NAMED_UNIT(#582)
PLANE_ANGLE_UNIT()
);
#585=(
NAMED_UNIT(*)
PLANE_ANGLE_UNIT()
SI_UNIT($,.RADIAN.)
);
#586=PLANE_ANGLE_MEASURE_WITH_UNIT(PLANE_ANGLE_MEASURE(0.01745329252),#585);
#587=SHAPE_DEFINITION_REPRESENTATION(#588,#589);
#588=PRODUCT_DEFINITION_SHAPE('',$,#591);
#589=SHAPE_REPRESENTATION('',(#350),#576);
#590=PRODUCT_DEFINITION_CONTEXT('part definition',#595,'design');
#591=PRODUCT_DEFINITION('JWD','JWD',#592,#590);
#592=PRODUCT_DEFINITION_FORMATION('',$,#597);
#593=PRODUCT_RELATED_PRODUCT_CATEGORY('JWD','JWD',(#597));
#594=APPLICATION_PROTOCOL_DEFINITION('international standard',
'automotive_design',2009,#595);
#595=APPLICATION_CONTEXT(
'Core Data for Automotive Mechanical Design Process');
#596=PRODUCT_CONTEXT('part definition',#595,'mechanical');
#597=PRODUCT('JWD','JWD',$,(#596));
#598=PRESENTATION_STYLE_ASSIGNMENT((#599));
#599=SURFACE_STYLE_USAGE(.BOTH.,#600);
#600=SURFACE_SIDE_STYLE('',(#601));
#601=SURFACE_STYLE_FILL_AREA(#602);
#602=FILL_AREA_STYLE('',(#603));
#603=FILL_AREA_STYLE_COLOUR('',#604);
#604=COLOUR_RGB('',0.63921568627451,0.63921568627451,0.686274509803922);
ENDSEC;
END-ISO-10303-21;
