ISO-10303-21;
HEADER;
/* Generated by software containing ST-Developer
 * from STEP Tools, Inc. (www.steptools.com) 
 */

FILE_DESCRIPTION(
/* description */ ('JW, RING, CRS, 4X4'),
/* implementation_level */ '2;1');

FILE_NAME(
/* name */ 
'C:\\Wiegmann\\W-Projects\\Wyatt\\JW_FITTINGS\\JWE\\DXF, PDF, STP\\JWE
4.stp',
/* time_stamp */ '2017-05-19T10:45:51-05:00',
/* author */ ('wford'),
/* organization */ (''),
/* preprocessor_version */ 'ST-DEVELOPER v16.1',
/* originating_system */ 'Autodesk Inventor 2016',
/* authorisation */ '');

FILE_SCHEMA (('AUTOMOTIVE_DESIGN { 1 0 10303 214 3 1 1 }'));
ENDSEC;

DATA;
#10=MECHANICAL_DESIGN_GEOMETRIC_PRESENTATION_REPRESENTATION('',(#13),#447);
#11=SHAPE_REPRESENTATION_RELATIONSHIP('SRR','None',#459,#12);
#12=ADVANCED_BREP_SHAPE_REPRESENTATION('',(#14),#446);
#13=STYLED_ITEM('',(#468),#14);
#14=MANIFOLD_SOLID_BREP('Solid1',#263);
#15=FACE_BOUND('',#50,.T.);
#16=FACE_BOUND('',#51,.T.);
#17=FACE_BOUND('',#52,.T.);
#18=FACE_BOUND('',#53,.T.);
#19=FACE_BOUND('',#60,.T.);
#20=FACE_BOUND('',#62,.T.);
#21=FACE_BOUND('',#64,.T.);
#22=FACE_BOUND('',#66,.T.);
#23=FACE_BOUND('',#69,.T.);
#24=FACE_BOUND('',#70,.T.);
#25=FACE_BOUND('',#71,.T.);
#26=FACE_BOUND('',#72,.T.);
#27=PLANE('',#268);
#28=PLANE('',#269);
#29=PLANE('',#279);
#30=PLANE('',#282);
#31=PLANE('',#293);
#32=PLANE('',#294);
#33=FACE_OUTER_BOUND('',#47,.T.);
#34=FACE_OUTER_BOUND('',#48,.T.);
#35=FACE_OUTER_BOUND('',#49,.T.);
#36=FACE_OUTER_BOUND('',#54,.T.);
#37=FACE_OUTER_BOUND('',#55,.T.);
#38=FACE_OUTER_BOUND('',#56,.T.);
#39=FACE_OUTER_BOUND('',#57,.T.);
#40=FACE_OUTER_BOUND('',#58,.T.);
#41=FACE_OUTER_BOUND('',#59,.T.);
#42=FACE_OUTER_BOUND('',#61,.T.);
#43=FACE_OUTER_BOUND('',#63,.T.);
#44=FACE_OUTER_BOUND('',#65,.T.);
#45=FACE_OUTER_BOUND('',#67,.T.);
#46=FACE_OUTER_BOUND('',#68,.T.);
#47=EDGE_LOOP('',(#177,#178,#179,#180));
#48=EDGE_LOOP('',(#181,#182,#183,#184));
#49=EDGE_LOOP('',(#185,#186,#187,#188,#189,#190,#191,#192));
#50=EDGE_LOOP('',(#193));
#51=EDGE_LOOP('',(#194));
#52=EDGE_LOOP('',(#195));
#53=EDGE_LOOP('',(#196));
#54=EDGE_LOOP('',(#197,#198,#199,#200));
#55=EDGE_LOOP('',(#201,#202,#203,#204));
#56=EDGE_LOOP('',(#205,#206,#207,#208));
#57=EDGE_LOOP('',(#209,#210,#211,#212));
#58=EDGE_LOOP('',(#213,#214,#215,#216));
#59=EDGE_LOOP('',(#217));
#60=EDGE_LOOP('',(#218));
#61=EDGE_LOOP('',(#219));
#62=EDGE_LOOP('',(#220));
#63=EDGE_LOOP('',(#221));
#64=EDGE_LOOP('',(#222));
#65=EDGE_LOOP('',(#223));
#66=EDGE_LOOP('',(#224));
#67=EDGE_LOOP('',(#225,#226,#227,#228));
#68=EDGE_LOOP('',(#229,#230,#231,#232,#233,#234,#235,#236));
#69=EDGE_LOOP('',(#237));
#70=EDGE_LOOP('',(#238));
#71=EDGE_LOOP('',(#239));
#72=EDGE_LOOP('',(#240));
#73=LINE('',#379,#89);
#74=LINE('',#382,#90);
#75=LINE('',#385,#91);
#76=LINE('',#387,#92);
#77=LINE('',#388,#93);
#78=LINE('',#391,#94);
#79=LINE('',#395,#95);
#80=LINE('',#399,#96);
#81=LINE('',#412,#97);
#82=LINE('',#415,#98);
#83=LINE('',#416,#99);
#84=LINE('',#420,#100);
#85=LINE('',#423,#101);
#86=LINE('',#424,#102);
#87=LINE('',#428,#103);
#88=LINE('',#442,#104);
#89=VECTOR('',#301,0.125);
#90=VECTOR('',#304,0.125);
#91=VECTOR('',#307,4.875);
#92=VECTOR('',#308,0.125);
#93=VECTOR('',#309,4.875);
#94=VECTOR('',#312,4.875);
#95=VECTOR('',#315,4.875);
#96=VECTOR('',#318,4.875);
#97=VECTOR('',#333,0.125);
#98=VECTOR('',#336,0.125);
#99=VECTOR('',#337,4.875);
#100=VECTOR('',#342,0.125);
#101=VECTOR('',#345,0.125);
#102=VECTOR('',#346,4.875);
#103=VECTOR('',#351,0.125);
#104=VECTOR('',#370,4.875);
#105=CIRCLE('',#266,0.25);
#106=CIRCLE('',#267,0.25);
#107=CIRCLE('',#270,0.25);
#108=CIRCLE('',#271,0.25);
#109=CIRCLE('',#272,0.25);
#110=CIRCLE('',#273,0.140625);
#111=CIRCLE('',#274,0.140625);
#112=CIRCLE('',#275,0.140625);
#113=CIRCLE('',#276,0.140625);
#114=CIRCLE('',#278,0.25);
#115=CIRCLE('',#281,0.25);
#116=CIRCLE('',#284,0.25);
#117=CIRCLE('',#286,0.140625);
#118=CIRCLE('',#288,0.140625);
#119=CIRCLE('',#290,0.140625);
#120=CIRCLE('',#292,0.140625);
#121=VERTEX_POINT('',#375);
#122=VERTEX_POINT('',#376);
#123=VERTEX_POINT('',#378);
#124=VERTEX_POINT('',#380);
#125=VERTEX_POINT('',#384);
#126=VERTEX_POINT('',#386);
#127=VERTEX_POINT('',#390);
#128=VERTEX_POINT('',#392);
#129=VERTEX_POINT('',#394);
#130=VERTEX_POINT('',#396);
#131=VERTEX_POINT('',#398);
#132=VERTEX_POINT('',#401);
#133=VERTEX_POINT('',#403);
#134=VERTEX_POINT('',#405);
#135=VERTEX_POINT('',#407);
#136=VERTEX_POINT('',#410);
#137=VERTEX_POINT('',#414);
#138=VERTEX_POINT('',#418);
#139=VERTEX_POINT('',#422);
#140=VERTEX_POINT('',#426);
#141=VERTEX_POINT('',#430);
#142=VERTEX_POINT('',#433);
#143=VERTEX_POINT('',#436);
#144=VERTEX_POINT('',#439);
#145=EDGE_CURVE('',#121,#122,#105,.T.);
#146=EDGE_CURVE('',#122,#123,#73,.T.);
#147=EDGE_CURVE('',#123,#124,#106,.T.);
#148=EDGE_CURVE('',#124,#121,#74,.T.);
#149=EDGE_CURVE('',#124,#125,#75,.T.);
#150=EDGE_CURVE('',#126,#125,#76,.T.);
#151=EDGE_CURVE('',#126,#121,#77,.T.);
#152=EDGE_CURVE('',#127,#123,#78,.T.);
#153=EDGE_CURVE('',#128,#127,#107,.T.);
#154=EDGE_CURVE('',#129,#128,#79,.T.);
#155=EDGE_CURVE('',#130,#129,#108,.T.);
#156=EDGE_CURVE('',#131,#130,#80,.T.);
#157=EDGE_CURVE('',#125,#131,#109,.T.);
#158=EDGE_CURVE('',#132,#132,#110,.T.);
#159=EDGE_CURVE('',#133,#133,#111,.T.);
#160=EDGE_CURVE('',#134,#134,#112,.T.);
#161=EDGE_CURVE('',#135,#135,#113,.T.);
#162=EDGE_CURVE('',#136,#126,#114,.T.);
#163=EDGE_CURVE('',#131,#136,#81,.T.);
#164=EDGE_CURVE('',#137,#130,#82,.T.);
#165=EDGE_CURVE('',#137,#136,#83,.T.);
#166=EDGE_CURVE('',#138,#137,#115,.T.);
#167=EDGE_CURVE('',#129,#138,#84,.T.);
#168=EDGE_CURVE('',#139,#128,#85,.T.);
#169=EDGE_CURVE('',#139,#138,#86,.T.);
#170=EDGE_CURVE('',#140,#139,#116,.T.);
#171=EDGE_CURVE('',#127,#140,#87,.T.);
#172=EDGE_CURVE('',#141,#141,#117,.T.);
#173=EDGE_CURVE('',#142,#142,#118,.T.);
#174=EDGE_CURVE('',#143,#143,#119,.T.);
#175=EDGE_CURVE('',#144,#144,#120,.T.);
#176=EDGE_CURVE('',#122,#140,#88,.T.);
#177=ORIENTED_EDGE('',*,*,#145,.T.);
#178=ORIENTED_EDGE('',*,*,#146,.T.);
#179=ORIENTED_EDGE('',*,*,#147,.T.);
#180=ORIENTED_EDGE('',*,*,#148,.T.);
#181=ORIENTED_EDGE('',*,*,#148,.F.);
#182=ORIENTED_EDGE('',*,*,#149,.T.);
#183=ORIENTED_EDGE('',*,*,#150,.F.);
#184=ORIENTED_EDGE('',*,*,#151,.T.);
#185=ORIENTED_EDGE('',*,*,#147,.F.);
#186=ORIENTED_EDGE('',*,*,#152,.F.);
#187=ORIENTED_EDGE('',*,*,#153,.F.);
#188=ORIENTED_EDGE('',*,*,#154,.F.);
#189=ORIENTED_EDGE('',*,*,#155,.F.);
#190=ORIENTED_EDGE('',*,*,#156,.F.);
#191=ORIENTED_EDGE('',*,*,#157,.F.);
#192=ORIENTED_EDGE('',*,*,#149,.F.);
#193=ORIENTED_EDGE('',*,*,#158,.T.);
#194=ORIENTED_EDGE('',*,*,#159,.T.);
#195=ORIENTED_EDGE('',*,*,#160,.T.);
#196=ORIENTED_EDGE('',*,*,#161,.T.);
#197=ORIENTED_EDGE('',*,*,#162,.T.);
#198=ORIENTED_EDGE('',*,*,#150,.T.);
#199=ORIENTED_EDGE('',*,*,#157,.T.);
#200=ORIENTED_EDGE('',*,*,#163,.T.);
#201=ORIENTED_EDGE('',*,*,#163,.F.);
#202=ORIENTED_EDGE('',*,*,#156,.T.);
#203=ORIENTED_EDGE('',*,*,#164,.F.);
#204=ORIENTED_EDGE('',*,*,#165,.T.);
#205=ORIENTED_EDGE('',*,*,#166,.T.);
#206=ORIENTED_EDGE('',*,*,#164,.T.);
#207=ORIENTED_EDGE('',*,*,#155,.T.);
#208=ORIENTED_EDGE('',*,*,#167,.T.);
#209=ORIENTED_EDGE('',*,*,#167,.F.);
#210=ORIENTED_EDGE('',*,*,#154,.T.);
#211=ORIENTED_EDGE('',*,*,#168,.F.);
#212=ORIENTED_EDGE('',*,*,#169,.T.);
#213=ORIENTED_EDGE('',*,*,#170,.T.);
#214=ORIENTED_EDGE('',*,*,#168,.T.);
#215=ORIENTED_EDGE('',*,*,#153,.T.);
#216=ORIENTED_EDGE('',*,*,#171,.T.);
#217=ORIENTED_EDGE('',*,*,#172,.F.);
#218=ORIENTED_EDGE('',*,*,#158,.F.);
#219=ORIENTED_EDGE('',*,*,#173,.F.);
#220=ORIENTED_EDGE('',*,*,#159,.F.);
#221=ORIENTED_EDGE('',*,*,#174,.F.);
#222=ORIENTED_EDGE('',*,*,#160,.F.);
#223=ORIENTED_EDGE('',*,*,#175,.F.);
#224=ORIENTED_EDGE('',*,*,#161,.F.);
#225=ORIENTED_EDGE('',*,*,#146,.F.);
#226=ORIENTED_EDGE('',*,*,#176,.T.);
#227=ORIENTED_EDGE('',*,*,#171,.F.);
#228=ORIENTED_EDGE('',*,*,#152,.T.);
#229=ORIENTED_EDGE('',*,*,#145,.F.);
#230=ORIENTED_EDGE('',*,*,#151,.F.);
#231=ORIENTED_EDGE('',*,*,#162,.F.);
#232=ORIENTED_EDGE('',*,*,#165,.F.);
#233=ORIENTED_EDGE('',*,*,#166,.F.);
#234=ORIENTED_EDGE('',*,*,#169,.F.);
#235=ORIENTED_EDGE('',*,*,#170,.F.);
#236=ORIENTED_EDGE('',*,*,#176,.F.);
#237=ORIENTED_EDGE('',*,*,#172,.T.);
#238=ORIENTED_EDGE('',*,*,#173,.T.);
#239=ORIENTED_EDGE('',*,*,#174,.T.);
#240=ORIENTED_EDGE('',*,*,#175,.T.);
#241=CYLINDRICAL_SURFACE('',#265,0.25);
#242=CYLINDRICAL_SURFACE('',#277,0.25);
#243=CYLINDRICAL_SURFACE('',#280,0.25);
#244=CYLINDRICAL_SURFACE('',#283,0.25);
#245=CYLINDRICAL_SURFACE('',#285,0.140625);
#246=CYLINDRICAL_SURFACE('',#287,0.140625);
#247=CYLINDRICAL_SURFACE('',#289,0.140625);
#248=CYLINDRICAL_SURFACE('',#291,0.140625);
#249=ADVANCED_FACE('',(#33),#241,.T.);
#250=ADVANCED_FACE('',(#34),#27,.T.);
#251=ADVANCED_FACE('',(#35,#15,#16,#17,#18),#28,.F.);
#252=ADVANCED_FACE('',(#36),#242,.T.);
#253=ADVANCED_FACE('',(#37),#29,.T.);
#254=ADVANCED_FACE('',(#38),#243,.T.);
#255=ADVANCED_FACE('',(#39),#30,.T.);
#256=ADVANCED_FACE('',(#40),#244,.T.);
#257=ADVANCED_FACE('',(#41,#19),#245,.F.);
#258=ADVANCED_FACE('',(#42,#20),#246,.F.);
#259=ADVANCED_FACE('',(#43,#21),#247,.F.);
#260=ADVANCED_FACE('',(#44,#22),#248,.F.);
#261=ADVANCED_FACE('',(#45),#31,.T.);
#262=ADVANCED_FACE('',(#46,#23,#24,#25,#26),#32,.T.);
#263=CLOSED_SHELL('',(#249,#250,#251,#252,#253,#254,#255,#256,#257,#258,
#259,#260,#261,#262));
#264=AXIS2_PLACEMENT_3D('placement',#373,#295,#296);
#265=AXIS2_PLACEMENT_3D('',#374,#297,#298);
#266=AXIS2_PLACEMENT_3D('',#377,#299,#300);
#267=AXIS2_PLACEMENT_3D('',#381,#302,#303);
#268=AXIS2_PLACEMENT_3D('',#383,#305,#306);
#269=AXIS2_PLACEMENT_3D('',#389,#310,#311);
#270=AXIS2_PLACEMENT_3D('',#393,#313,#314);
#271=AXIS2_PLACEMENT_3D('',#397,#316,#317);
#272=AXIS2_PLACEMENT_3D('',#400,#319,#320);
#273=AXIS2_PLACEMENT_3D('',#402,#321,#322);
#274=AXIS2_PLACEMENT_3D('',#404,#323,#324);
#275=AXIS2_PLACEMENT_3D('',#406,#325,#326);
#276=AXIS2_PLACEMENT_3D('',#408,#327,#328);
#277=AXIS2_PLACEMENT_3D('',#409,#329,#330);
#278=AXIS2_PLACEMENT_3D('',#411,#331,#332);
#279=AXIS2_PLACEMENT_3D('',#413,#334,#335);
#280=AXIS2_PLACEMENT_3D('',#417,#338,#339);
#281=AXIS2_PLACEMENT_3D('',#419,#340,#341);
#282=AXIS2_PLACEMENT_3D('',#421,#343,#344);
#283=AXIS2_PLACEMENT_3D('',#425,#347,#348);
#284=AXIS2_PLACEMENT_3D('',#427,#349,#350);
#285=AXIS2_PLACEMENT_3D('',#429,#352,#353);
#286=AXIS2_PLACEMENT_3D('',#431,#354,#355);
#287=AXIS2_PLACEMENT_3D('',#432,#356,#357);
#288=AXIS2_PLACEMENT_3D('',#434,#358,#359);
#289=AXIS2_PLACEMENT_3D('',#435,#360,#361);
#290=AXIS2_PLACEMENT_3D('',#437,#362,#363);
#291=AXIS2_PLACEMENT_3D('',#438,#364,#365);
#292=AXIS2_PLACEMENT_3D('',#440,#366,#367);
#293=AXIS2_PLACEMENT_3D('',#441,#368,#369);
#294=AXIS2_PLACEMENT_3D('',#443,#371,#372);
#295=DIRECTION('axis',(0.,0.,1.));
#296=DIRECTION('refdir',(1.,0.,0.));
#297=DIRECTION('center_axis',(0.,0.,1.));
#298=DIRECTION('ref_axis',(-0.707106781186548,-0.707106781186548,0.));
#299=DIRECTION('center_axis',(0.,0.,-1.));
#300=DIRECTION('ref_axis',(-0.707106781186548,-0.707106781186548,0.));
#301=DIRECTION('',(0.,0.,-1.));
#302=DIRECTION('center_axis',(0.,0.,1.));
#303=DIRECTION('ref_axis',(-0.707106781186548,-0.707106781186548,0.));
#304=DIRECTION('',(0.,0.,1.));
#305=DIRECTION('center_axis',(3.25280505292117E-16,-1.,0.));
#306=DIRECTION('ref_axis',(0.,0.,-1.));
#307=DIRECTION('',(1.,3.25280505292117E-16,0.));
#308=DIRECTION('',(0.,0.,-1.));
#309=DIRECTION('',(-1.,-3.25280505292117E-16,0.));
#310=DIRECTION('center_axis',(0.,0.,1.));
#311=DIRECTION('ref_axis',(1.,0.,0.));
#312=DIRECTION('',(0.,-1.,0.));
#313=DIRECTION('center_axis',(0.,0.,1.));
#314=DIRECTION('ref_axis',(-0.707106781186548,0.707106781186548,0.));
#315=DIRECTION('',(-1.,-5.20448808467387E-16,0.));
#316=DIRECTION('center_axis',(0.,0.,1.));
#317=DIRECTION('ref_axis',(0.707106781186548,0.707106781186548,0.));
#318=DIRECTION('',(-1.30112202116847E-16,1.,0.));
#319=DIRECTION('center_axis',(0.,0.,1.));
#320=DIRECTION('ref_axis',(0.707106781186548,-0.707106781186548,0.));
#321=DIRECTION('center_axis',(0.,0.,1.));
#322=DIRECTION('ref_axis',(-1.,0.,0.));
#323=DIRECTION('center_axis',(0.,0.,1.));
#324=DIRECTION('ref_axis',(-1.,0.,0.));
#325=DIRECTION('center_axis',(0.,0.,1.));
#326=DIRECTION('ref_axis',(-1.,0.,0.));
#327=DIRECTION('center_axis',(0.,0.,1.));
#328=DIRECTION('ref_axis',(-1.,0.,0.));
#329=DIRECTION('center_axis',(0.,0.,1.));
#330=DIRECTION('ref_axis',(0.707106781186548,-0.707106781186548,0.));
#331=DIRECTION('center_axis',(0.,0.,-1.));
#332=DIRECTION('ref_axis',(0.707106781186548,-0.707106781186548,0.));
#333=DIRECTION('',(0.,0.,1.));
#334=DIRECTION('center_axis',(1.,1.30112202116847E-16,0.));
#335=DIRECTION('ref_axis',(0.,0.,-1.));
#336=DIRECTION('',(0.,0.,-1.));
#337=DIRECTION('',(1.30112202116847E-16,-1.,0.));
#338=DIRECTION('center_axis',(0.,0.,1.));
#339=DIRECTION('ref_axis',(0.707106781186548,0.707106781186548,0.));
#340=DIRECTION('center_axis',(0.,0.,-1.));
#341=DIRECTION('ref_axis',(0.707106781186548,0.707106781186548,0.));
#342=DIRECTION('',(0.,0.,1.));
#343=DIRECTION('center_axis',(-5.20448808467387E-16,1.,0.));
#344=DIRECTION('ref_axis',(0.,0.,1.));
#345=DIRECTION('',(0.,0.,-1.));
#346=DIRECTION('',(1.,5.20448808467387E-16,0.));
#347=DIRECTION('center_axis',(0.,0.,1.));
#348=DIRECTION('ref_axis',(-0.707106781186548,0.707106781186548,0.));
#349=DIRECTION('center_axis',(0.,0.,-1.));
#350=DIRECTION('ref_axis',(-0.707106781186548,0.707106781186548,0.));
#351=DIRECTION('',(0.,0.,1.));
#352=DIRECTION('center_axis',(0.,0.,1.));
#353=DIRECTION('ref_axis',(-1.,0.,0.));
#354=DIRECTION('center_axis',(0.,0.,-1.));
#355=DIRECTION('ref_axis',(-1.,0.,0.));
#356=DIRECTION('center_axis',(0.,0.,1.));
#357=DIRECTION('ref_axis',(-1.,0.,0.));
#358=DIRECTION('center_axis',(0.,0.,-1.));
#359=DIRECTION('ref_axis',(-1.,0.,0.));
#360=DIRECTION('center_axis',(0.,0.,1.));
#361=DIRECTION('ref_axis',(-1.,0.,0.));
#362=DIRECTION('center_axis',(0.,0.,-1.));
#363=DIRECTION('ref_axis',(-1.,0.,0.));
#364=DIRECTION('center_axis',(0.,0.,1.));
#365=DIRECTION('ref_axis',(-1.,0.,0.));
#366=DIRECTION('center_axis',(0.,0.,-1.));
#367=DIRECTION('ref_axis',(-1.,0.,0.));
#368=DIRECTION('center_axis',(-1.,0.,0.));
#369=DIRECTION('ref_axis',(0.,0.,1.));
#370=DIRECTION('',(0.,1.,0.));
#371=DIRECTION('center_axis',(0.,0.,1.));
#372=DIRECTION('ref_axis',(1.,0.,0.));
#373=CARTESIAN_POINT('',(0.,0.,0.));
#374=CARTESIAN_POINT('Origin',(-2.4375,-2.4375,0.));
#375=CARTESIAN_POINT('',(-2.4375,-2.6875,0.125));
#376=CARTESIAN_POINT('',(-2.6875,-2.4375,0.125));
#377=CARTESIAN_POINT('Origin',(-2.4375,-2.4375,0.125));
#378=CARTESIAN_POINT('',(-2.6875,-2.4375,0.));
#379=CARTESIAN_POINT('',(-2.6875,-2.4375,0.));
#380=CARTESIAN_POINT('',(-2.4375,-2.6875,0.));
#381=CARTESIAN_POINT('Origin',(-2.4375,-2.4375,0.));
#382=CARTESIAN_POINT('',(-2.4375,-2.6875,0.));
#383=CARTESIAN_POINT('Origin',(2.6875,-2.6875,0.));
#384=CARTESIAN_POINT('',(2.4375,-2.6875,0.));
#385=CARTESIAN_POINT('',(-2.6875,-2.6875,0.));
#386=CARTESIAN_POINT('',(2.4375,-2.6875,0.125));
#387=CARTESIAN_POINT('',(2.4375,-2.6875,0.));
#388=CARTESIAN_POINT('',(-2.6875,-2.6875,0.125));
#389=CARTESIAN_POINT('Origin',(0.,-6.43722727234343E-16,0.));
#390=CARTESIAN_POINT('',(-2.6875,2.4375,0.));
#391=CARTESIAN_POINT('',(-2.6875,2.6875,0.));
#392=CARTESIAN_POINT('',(-2.4375,2.6875,0.));
#393=CARTESIAN_POINT('Origin',(-2.4375,2.4375,0.));
#394=CARTESIAN_POINT('',(2.4375,2.6875,0.));
#395=CARTESIAN_POINT('',(2.6875,2.6875,0.));
#396=CARTESIAN_POINT('',(2.6875,2.4375,0.));
#397=CARTESIAN_POINT('Origin',(2.4375,2.4375,0.));
#398=CARTESIAN_POINT('',(2.6875,-2.4375,0.));
#399=CARTESIAN_POINT('',(2.6875,-2.6875,0.));
#400=CARTESIAN_POINT('Origin',(2.4375,-2.4375,0.));
#401=CARTESIAN_POINT('',(-2.166875,2.3075,0.));
#402=CARTESIAN_POINT('Origin',(-2.3075,2.3075,0.));
#403=CARTESIAN_POINT('',(-2.166875,-2.3075,0.));
#404=CARTESIAN_POINT('Origin',(-2.3075,-2.3075,0.));
#405=CARTESIAN_POINT('',(2.448125,-2.3075,0.));
#406=CARTESIAN_POINT('Origin',(2.3075,-2.3075,0.));
#407=CARTESIAN_POINT('',(2.448125,2.3075,0.));
#408=CARTESIAN_POINT('Origin',(2.3075,2.3075,0.));
#409=CARTESIAN_POINT('Origin',(2.4375,-2.4375,0.));
#410=CARTESIAN_POINT('',(2.6875,-2.4375,0.125));
#411=CARTESIAN_POINT('Origin',(2.4375,-2.4375,0.125));
#412=CARTESIAN_POINT('',(2.6875,-2.4375,0.));
#413=CARTESIAN_POINT('Origin',(2.6875,2.6875,0.));
#414=CARTESIAN_POINT('',(2.6875,2.4375,0.125));
#415=CARTESIAN_POINT('',(2.6875,2.4375,0.));
#416=CARTESIAN_POINT('',(2.6875,-2.6875,0.125));
#417=CARTESIAN_POINT('Origin',(2.4375,2.4375,0.));
#418=CARTESIAN_POINT('',(2.4375,2.6875,0.125));
#419=CARTESIAN_POINT('Origin',(2.4375,2.4375,0.125));
#420=CARTESIAN_POINT('',(2.4375,2.6875,0.));
#421=CARTESIAN_POINT('Origin',(-2.6875,2.6875,0.));
#422=CARTESIAN_POINT('',(-2.4375,2.6875,0.125));
#423=CARTESIAN_POINT('',(-2.4375,2.6875,0.));
#424=CARTESIAN_POINT('',(2.6875,2.6875,0.125));
#425=CARTESIAN_POINT('Origin',(-2.4375,2.4375,0.));
#426=CARTESIAN_POINT('',(-2.6875,2.4375,0.125));
#427=CARTESIAN_POINT('Origin',(-2.4375,2.4375,0.125));
#428=CARTESIAN_POINT('',(-2.6875,2.4375,0.));
#429=CARTESIAN_POINT('Origin',(-2.3075,2.3075,0.));
#430=CARTESIAN_POINT('',(-2.166875,2.3075,0.125));
#431=CARTESIAN_POINT('Origin',(-2.3075,2.3075,0.125));
#432=CARTESIAN_POINT('Origin',(-2.3075,-2.3075,0.));
#433=CARTESIAN_POINT('',(-2.166875,-2.3075,0.125));
#434=CARTESIAN_POINT('Origin',(-2.3075,-2.3075,0.125));
#435=CARTESIAN_POINT('Origin',(2.3075,-2.3075,0.));
#436=CARTESIAN_POINT('',(2.448125,-2.3075,0.125));
#437=CARTESIAN_POINT('Origin',(2.3075,-2.3075,0.125));
#438=CARTESIAN_POINT('Origin',(2.3075,2.3075,0.));
#439=CARTESIAN_POINT('',(2.448125,2.3075,0.125));
#440=CARTESIAN_POINT('Origin',(2.3075,2.3075,0.125));
#441=CARTESIAN_POINT('Origin',(-2.6875,-2.6875,0.));
#442=CARTESIAN_POINT('',(-2.6875,2.6875,0.125));
#443=CARTESIAN_POINT('Origin',(0.,-4.92726038129991E-16,0.125));
#444=UNCERTAINTY_MEASURE_WITH_UNIT(LENGTH_MEASURE(0.000393700787401575),
#448,'DISTANCE_ACCURACY_VALUE',
'Maximum model space distance between geometric entities at asserted c
onnectivities');
#445=UNCERTAINTY_MEASURE_WITH_UNIT(LENGTH_MEASURE(1.E-6),#449,
'DISTANCE_ACCURACY_VALUE',
'Maximum model space distance between geometric entities at asserted c
onnectivities');
#446=(
GEOMETRIC_REPRESENTATION_CONTEXT(3)
GLOBAL_UNCERTAINTY_ASSIGNED_CONTEXT((#444))
GLOBAL_UNIT_ASSIGNED_CONTEXT((#448,#454,#451))
REPRESENTATION_CONTEXT('','3D')
);
#447=(
GEOMETRIC_REPRESENTATION_CONTEXT(3)
GLOBAL_UNCERTAINTY_ASSIGNED_CONTEXT((#445))
GLOBAL_UNIT_ASSIGNED_CONTEXT((#449,#454,#451))
REPRESENTATION_CONTEXT('','3D')
);
#448=(
CONVERSION_BASED_UNIT('__CONSTANT UNIT inch',#450)
LENGTH_UNIT()
NAMED_UNIT(#453)
);
#449=(
LENGTH_UNIT()
NAMED_UNIT(*)
SI_UNIT(.MILLI.,.METRE.)
);
#450=LENGTH_MEASURE_WITH_UNIT(LENGTH_MEASURE(25.4),#449);
#451=(
NAMED_UNIT(*)
SI_UNIT($,.STERADIAN.)
SOLID_ANGLE_UNIT()
);
#452=DIMENSIONAL_EXPONENTS(0.,0.,0.,0.,0.,0.,0.);
#453=DIMENSIONAL_EXPONENTS(1.,0.,0.,0.,0.,0.,0.);
#454=(
CONVERSION_BASED_UNIT('degree',#456)
NAMED_UNIT(#452)
PLANE_ANGLE_UNIT()
);
#455=(
NAMED_UNIT(*)
PLANE_ANGLE_UNIT()
SI_UNIT($,.RADIAN.)
);
#456=PLANE_ANGLE_MEASURE_WITH_UNIT(PLANE_ANGLE_MEASURE(0.01745329252),#455);
#457=SHAPE_DEFINITION_REPRESENTATION(#458,#459);
#458=PRODUCT_DEFINITION_SHAPE('',$,#461);
#459=SHAPE_REPRESENTATION('',(#264),#446);
#460=PRODUCT_DEFINITION_CONTEXT('part definition',#465,'design');
#461=PRODUCT_DEFINITION('JWE','JWE',#462,#460);
#462=PRODUCT_DEFINITION_FORMATION('',$,#467);
#463=PRODUCT_RELATED_PRODUCT_CATEGORY('JWE','JWE',(#467));
#464=APPLICATION_PROTOCOL_DEFINITION('international standard',
'automotive_design',2009,#465);
#465=APPLICATION_CONTEXT(
'Core Data for Automotive Mechanical Design Process');
#466=PRODUCT_CONTEXT('part definition',#465,'mechanical');
#467=PRODUCT('JWE','JWE',$,(#466));
#468=PRESENTATION_STYLE_ASSIGNMENT((#469));
#469=SURFACE_STYLE_USAGE(.BOTH.,#470);
#470=SURFACE_SIDE_STYLE('',(#471));
#471=SURFACE_STYLE_FILL_AREA(#472);
#472=FILL_AREA_STYLE('',(#473));
#473=FILL_AREA_STYLE_COLOUR('',#474);
#474=COLOUR_RGB('',0.63921568627451,0.63921568627451,0.686274509803922);
ENDSEC;
END-ISO-10303-21;
