ISO-10303-21;
HEADER;
/* Generated by software containing ST-Developer
 * from STEP Tools, Inc. (www.steptools.com) 
 */

FILE_DESCRIPTION(
/* description */ ('JW, RING, CRS, 8X8'),
/* implementation_level */ '2;1');

FILE_NAME(
/* name */ 
'C:\\Wiegmann\\W-Projects\\Wyatt\\JW_FITTINGS\\JWE\\DXF, PDF, STP\\JWE
8.stp',
/* time_stamp */ '2017-05-19T10:45:39-05:00',
/* author */ ('wford'),
/* organization */ (''),
/* preprocessor_version */ 'ST-DEVELOPER v16.1',
/* originating_system */ 'Autodesk Inventor 2016',
/* authorisation */ '');

FILE_SCHEMA (('AUTOMOTIVE_DESIGN { 1 0 10303 214 3 1 1 }'));
ENDSEC;

DATA;
#10=MECHANICAL_DESIGN_GEOMETRIC_PRESENTATION_REPRESENTATION('',(#13),#583);
#11=SHAPE_REPRESENTATION_RELATIONSHIP('SRR','None',#595,#12);
#12=ADVANCED_BREP_SHAPE_REPRESENTATION('',(#14),#582);
#13=STYLED_ITEM('',(#604),#14);
#14=MANIFOLD_SOLID_BREP('Solid1',#343);
#15=PLANE('',#360);
#16=PLANE('',#361);
#17=PLANE('',#371);
#18=PLANE('',#374);
#19=PLANE('',#385);
#20=PLANE('',#386);
#21=LINE('',#515,#37);
#22=LINE('',#518,#38);
#23=LINE('',#521,#39);
#24=LINE('',#523,#40);
#25=LINE('',#524,#41);
#26=LINE('',#527,#42);
#27=LINE('',#531,#43);
#28=LINE('',#535,#44);
#29=LINE('',#548,#45);
#30=LINE('',#551,#46);
#31=LINE('',#552,#47);
#32=LINE('',#556,#48);
#33=LINE('',#559,#49);
#34=LINE('',#560,#50);
#35=LINE('',#564,#51);
#36=LINE('',#578,#52);
#37=VECTOR('',#417,0.125);
#38=VECTOR('',#420,0.125);
#39=VECTOR('',#423,9.125);
#40=VECTOR('',#424,0.125);
#41=VECTOR('',#425,9.125);
#42=VECTOR('',#428,9.125);
#43=VECTOR('',#431,9.125);
#44=VECTOR('',#434,9.125);
#45=VECTOR('',#449,0.125);
#46=VECTOR('',#452,0.125);
#47=VECTOR('',#453,9.125);
#48=VECTOR('',#458,0.125);
#49=VECTOR('',#461,0.125);
#50=VECTOR('',#462,9.125);
#51=VECTOR('',#467,0.125);
#52=VECTOR('',#486,9.125);
#53=FACE_BOUND('',#96,.T.);
#54=FACE_BOUND('',#98,.T.);
#55=FACE_BOUND('',#100,.T.);
#56=FACE_BOUND('',#102,.T.);
#57=FACE_BOUND('',#106,.T.);
#58=FACE_BOUND('',#107,.T.);
#59=FACE_BOUND('',#108,.T.);
#60=FACE_BOUND('',#109,.T.);
#61=FACE_BOUND('',#110,.T.);
#62=FACE_BOUND('',#111,.T.);
#63=FACE_BOUND('',#112,.T.);
#64=FACE_BOUND('',#113,.T.);
#65=FACE_BOUND('',#120,.T.);
#66=FACE_BOUND('',#122,.T.);
#67=FACE_BOUND('',#124,.T.);
#68=FACE_BOUND('',#126,.T.);
#69=FACE_BOUND('',#129,.T.);
#70=FACE_BOUND('',#130,.T.);
#71=FACE_BOUND('',#131,.T.);
#72=FACE_BOUND('',#132,.T.);
#73=FACE_BOUND('',#133,.T.);
#74=FACE_BOUND('',#134,.T.);
#75=FACE_BOUND('',#135,.T.);
#76=FACE_BOUND('',#136,.T.);
#77=FACE_OUTER_BOUND('',#95,.T.);
#78=FACE_OUTER_BOUND('',#97,.T.);
#79=FACE_OUTER_BOUND('',#99,.T.);
#80=FACE_OUTER_BOUND('',#101,.T.);
#81=FACE_OUTER_BOUND('',#103,.T.);
#82=FACE_OUTER_BOUND('',#104,.T.);
#83=FACE_OUTER_BOUND('',#105,.T.);
#84=FACE_OUTER_BOUND('',#114,.T.);
#85=FACE_OUTER_BOUND('',#115,.T.);
#86=FACE_OUTER_BOUND('',#116,.T.);
#87=FACE_OUTER_BOUND('',#117,.T.);
#88=FACE_OUTER_BOUND('',#118,.T.);
#89=FACE_OUTER_BOUND('',#119,.T.);
#90=FACE_OUTER_BOUND('',#121,.T.);
#91=FACE_OUTER_BOUND('',#123,.T.);
#92=FACE_OUTER_BOUND('',#125,.T.);
#93=FACE_OUTER_BOUND('',#127,.T.);
#94=FACE_OUTER_BOUND('',#128,.T.);
#95=EDGE_LOOP('',(#233));
#96=EDGE_LOOP('',(#234));
#97=EDGE_LOOP('',(#235));
#98=EDGE_LOOP('',(#236));
#99=EDGE_LOOP('',(#237));
#100=EDGE_LOOP('',(#238));
#101=EDGE_LOOP('',(#239));
#102=EDGE_LOOP('',(#240));
#103=EDGE_LOOP('',(#241,#242,#243,#244));
#104=EDGE_LOOP('',(#245,#246,#247,#248));
#105=EDGE_LOOP('',(#249,#250,#251,#252,#253,#254,#255,#256));
#106=EDGE_LOOP('',(#257));
#107=EDGE_LOOP('',(#258));
#108=EDGE_LOOP('',(#259));
#109=EDGE_LOOP('',(#260));
#110=EDGE_LOOP('',(#261));
#111=EDGE_LOOP('',(#262));
#112=EDGE_LOOP('',(#263));
#113=EDGE_LOOP('',(#264));
#114=EDGE_LOOP('',(#265,#266,#267,#268));
#115=EDGE_LOOP('',(#269,#270,#271,#272));
#116=EDGE_LOOP('',(#273,#274,#275,#276));
#117=EDGE_LOOP('',(#277,#278,#279,#280));
#118=EDGE_LOOP('',(#281,#282,#283,#284));
#119=EDGE_LOOP('',(#285));
#120=EDGE_LOOP('',(#286));
#121=EDGE_LOOP('',(#287));
#122=EDGE_LOOP('',(#288));
#123=EDGE_LOOP('',(#289));
#124=EDGE_LOOP('',(#290));
#125=EDGE_LOOP('',(#291));
#126=EDGE_LOOP('',(#292));
#127=EDGE_LOOP('',(#293,#294,#295,#296));
#128=EDGE_LOOP('',(#297,#298,#299,#300,#301,#302,#303,#304));
#129=EDGE_LOOP('',(#305));
#130=EDGE_LOOP('',(#306));
#131=EDGE_LOOP('',(#307));
#132=EDGE_LOOP('',(#308));
#133=EDGE_LOOP('',(#309));
#134=EDGE_LOOP('',(#310));
#135=EDGE_LOOP('',(#311));
#136=EDGE_LOOP('',(#312));
#137=CIRCLE('',#346,0.14);
#138=CIRCLE('',#347,0.14);
#139=CIRCLE('',#349,0.14);
#140=CIRCLE('',#350,0.14);
#141=CIRCLE('',#352,0.14);
#142=CIRCLE('',#353,0.14);
#143=CIRCLE('',#355,0.14);
#144=CIRCLE('',#356,0.14);
#145=CIRCLE('',#358,0.25);
#146=CIRCLE('',#359,0.25);
#147=CIRCLE('',#362,0.25);
#148=CIRCLE('',#363,0.25);
#149=CIRCLE('',#364,0.25);
#150=CIRCLE('',#365,0.140625);
#151=CIRCLE('',#366,0.140625);
#152=CIRCLE('',#367,0.140625);
#153=CIRCLE('',#368,0.140625);
#154=CIRCLE('',#370,0.25);
#155=CIRCLE('',#373,0.25);
#156=CIRCLE('',#376,0.25);
#157=CIRCLE('',#378,0.140625);
#158=CIRCLE('',#380,0.140625);
#159=CIRCLE('',#382,0.140625);
#160=CIRCLE('',#384,0.140625);
#161=VERTEX_POINT('',#491);
#162=VERTEX_POINT('',#493);
#163=VERTEX_POINT('',#496);
#164=VERTEX_POINT('',#498);
#165=VERTEX_POINT('',#501);
#166=VERTEX_POINT('',#503);
#167=VERTEX_POINT('',#506);
#168=VERTEX_POINT('',#508);
#169=VERTEX_POINT('',#511);
#170=VERTEX_POINT('',#512);
#171=VERTEX_POINT('',#514);
#172=VERTEX_POINT('',#516);
#173=VERTEX_POINT('',#520);
#174=VERTEX_POINT('',#522);
#175=VERTEX_POINT('',#526);
#176=VERTEX_POINT('',#528);
#177=VERTEX_POINT('',#530);
#178=VERTEX_POINT('',#532);
#179=VERTEX_POINT('',#534);
#180=VERTEX_POINT('',#537);
#181=VERTEX_POINT('',#539);
#182=VERTEX_POINT('',#541);
#183=VERTEX_POINT('',#543);
#184=VERTEX_POINT('',#546);
#185=VERTEX_POINT('',#550);
#186=VERTEX_POINT('',#554);
#187=VERTEX_POINT('',#558);
#188=VERTEX_POINT('',#562);
#189=VERTEX_POINT('',#566);
#190=VERTEX_POINT('',#569);
#191=VERTEX_POINT('',#572);
#192=VERTEX_POINT('',#575);
#193=EDGE_CURVE('',#161,#161,#137,.T.);
#194=EDGE_CURVE('',#162,#162,#138,.T.);
#195=EDGE_CURVE('',#163,#163,#139,.T.);
#196=EDGE_CURVE('',#164,#164,#140,.T.);
#197=EDGE_CURVE('',#165,#165,#141,.T.);
#198=EDGE_CURVE('',#166,#166,#142,.T.);
#199=EDGE_CURVE('',#167,#167,#143,.T.);
#200=EDGE_CURVE('',#168,#168,#144,.T.);
#201=EDGE_CURVE('',#169,#170,#145,.T.);
#202=EDGE_CURVE('',#170,#171,#21,.T.);
#203=EDGE_CURVE('',#171,#172,#146,.T.);
#204=EDGE_CURVE('',#172,#169,#22,.T.);
#205=EDGE_CURVE('',#172,#173,#23,.T.);
#206=EDGE_CURVE('',#174,#173,#24,.T.);
#207=EDGE_CURVE('',#174,#169,#25,.T.);
#208=EDGE_CURVE('',#175,#171,#26,.T.);
#209=EDGE_CURVE('',#176,#175,#147,.T.);
#210=EDGE_CURVE('',#177,#176,#27,.T.);
#211=EDGE_CURVE('',#178,#177,#148,.T.);
#212=EDGE_CURVE('',#179,#178,#28,.T.);
#213=EDGE_CURVE('',#173,#179,#149,.T.);
#214=EDGE_CURVE('',#180,#180,#150,.T.);
#215=EDGE_CURVE('',#181,#181,#151,.T.);
#216=EDGE_CURVE('',#182,#182,#152,.T.);
#217=EDGE_CURVE('',#183,#183,#153,.T.);
#218=EDGE_CURVE('',#184,#174,#154,.T.);
#219=EDGE_CURVE('',#179,#184,#29,.T.);
#220=EDGE_CURVE('',#185,#178,#30,.T.);
#221=EDGE_CURVE('',#185,#184,#31,.T.);
#222=EDGE_CURVE('',#186,#185,#155,.T.);
#223=EDGE_CURVE('',#177,#186,#32,.T.);
#224=EDGE_CURVE('',#187,#176,#33,.T.);
#225=EDGE_CURVE('',#187,#186,#34,.T.);
#226=EDGE_CURVE('',#188,#187,#156,.T.);
#227=EDGE_CURVE('',#175,#188,#35,.T.);
#228=EDGE_CURVE('',#189,#189,#157,.T.);
#229=EDGE_CURVE('',#190,#190,#158,.T.);
#230=EDGE_CURVE('',#191,#191,#159,.T.);
#231=EDGE_CURVE('',#192,#192,#160,.T.);
#232=EDGE_CURVE('',#170,#188,#36,.T.);
#233=ORIENTED_EDGE('',*,*,#193,.F.);
#234=ORIENTED_EDGE('',*,*,#194,.F.);
#235=ORIENTED_EDGE('',*,*,#195,.F.);
#236=ORIENTED_EDGE('',*,*,#196,.F.);
#237=ORIENTED_EDGE('',*,*,#197,.F.);
#238=ORIENTED_EDGE('',*,*,#198,.F.);
#239=ORIENTED_EDGE('',*,*,#199,.F.);
#240=ORIENTED_EDGE('',*,*,#200,.F.);
#241=ORIENTED_EDGE('',*,*,#201,.T.);
#242=ORIENTED_EDGE('',*,*,#202,.T.);
#243=ORIENTED_EDGE('',*,*,#203,.T.);
#244=ORIENTED_EDGE('',*,*,#204,.T.);
#245=ORIENTED_EDGE('',*,*,#204,.F.);
#246=ORIENTED_EDGE('',*,*,#205,.T.);
#247=ORIENTED_EDGE('',*,*,#206,.F.);
#248=ORIENTED_EDGE('',*,*,#207,.T.);
#249=ORIENTED_EDGE('',*,*,#203,.F.);
#250=ORIENTED_EDGE('',*,*,#208,.F.);
#251=ORIENTED_EDGE('',*,*,#209,.F.);
#252=ORIENTED_EDGE('',*,*,#210,.F.);
#253=ORIENTED_EDGE('',*,*,#211,.F.);
#254=ORIENTED_EDGE('',*,*,#212,.F.);
#255=ORIENTED_EDGE('',*,*,#213,.F.);
#256=ORIENTED_EDGE('',*,*,#205,.F.);
#257=ORIENTED_EDGE('',*,*,#193,.T.);
#258=ORIENTED_EDGE('',*,*,#195,.T.);
#259=ORIENTED_EDGE('',*,*,#197,.T.);
#260=ORIENTED_EDGE('',*,*,#199,.T.);
#261=ORIENTED_EDGE('',*,*,#214,.T.);
#262=ORIENTED_EDGE('',*,*,#215,.T.);
#263=ORIENTED_EDGE('',*,*,#216,.T.);
#264=ORIENTED_EDGE('',*,*,#217,.T.);
#265=ORIENTED_EDGE('',*,*,#218,.T.);
#266=ORIENTED_EDGE('',*,*,#206,.T.);
#267=ORIENTED_EDGE('',*,*,#213,.T.);
#268=ORIENTED_EDGE('',*,*,#219,.T.);
#269=ORIENTED_EDGE('',*,*,#219,.F.);
#270=ORIENTED_EDGE('',*,*,#212,.T.);
#271=ORIENTED_EDGE('',*,*,#220,.F.);
#272=ORIENTED_EDGE('',*,*,#221,.T.);
#273=ORIENTED_EDGE('',*,*,#222,.T.);
#274=ORIENTED_EDGE('',*,*,#220,.T.);
#275=ORIENTED_EDGE('',*,*,#211,.T.);
#276=ORIENTED_EDGE('',*,*,#223,.T.);
#277=ORIENTED_EDGE('',*,*,#223,.F.);
#278=ORIENTED_EDGE('',*,*,#210,.T.);
#279=ORIENTED_EDGE('',*,*,#224,.F.);
#280=ORIENTED_EDGE('',*,*,#225,.T.);
#281=ORIENTED_EDGE('',*,*,#226,.T.);
#282=ORIENTED_EDGE('',*,*,#224,.T.);
#283=ORIENTED_EDGE('',*,*,#209,.T.);
#284=ORIENTED_EDGE('',*,*,#227,.T.);
#285=ORIENTED_EDGE('',*,*,#228,.F.);
#286=ORIENTED_EDGE('',*,*,#214,.F.);
#287=ORIENTED_EDGE('',*,*,#229,.F.);
#288=ORIENTED_EDGE('',*,*,#215,.F.);
#289=ORIENTED_EDGE('',*,*,#230,.F.);
#290=ORIENTED_EDGE('',*,*,#216,.F.);
#291=ORIENTED_EDGE('',*,*,#231,.F.);
#292=ORIENTED_EDGE('',*,*,#217,.F.);
#293=ORIENTED_EDGE('',*,*,#202,.F.);
#294=ORIENTED_EDGE('',*,*,#232,.T.);
#295=ORIENTED_EDGE('',*,*,#227,.F.);
#296=ORIENTED_EDGE('',*,*,#208,.T.);
#297=ORIENTED_EDGE('',*,*,#201,.F.);
#298=ORIENTED_EDGE('',*,*,#207,.F.);
#299=ORIENTED_EDGE('',*,*,#218,.F.);
#300=ORIENTED_EDGE('',*,*,#221,.F.);
#301=ORIENTED_EDGE('',*,*,#222,.F.);
#302=ORIENTED_EDGE('',*,*,#225,.F.);
#303=ORIENTED_EDGE('',*,*,#226,.F.);
#304=ORIENTED_EDGE('',*,*,#232,.F.);
#305=ORIENTED_EDGE('',*,*,#194,.T.);
#306=ORIENTED_EDGE('',*,*,#196,.T.);
#307=ORIENTED_EDGE('',*,*,#198,.T.);
#308=ORIENTED_EDGE('',*,*,#200,.T.);
#309=ORIENTED_EDGE('',*,*,#228,.T.);
#310=ORIENTED_EDGE('',*,*,#229,.T.);
#311=ORIENTED_EDGE('',*,*,#230,.T.);
#312=ORIENTED_EDGE('',*,*,#231,.T.);
#313=CYLINDRICAL_SURFACE('',#345,0.14);
#314=CYLINDRICAL_SURFACE('',#348,0.14);
#315=CYLINDRICAL_SURFACE('',#351,0.14);
#316=CYLINDRICAL_SURFACE('',#354,0.14);
#317=CYLINDRICAL_SURFACE('',#357,0.25);
#318=CYLINDRICAL_SURFACE('',#369,0.25);
#319=CYLINDRICAL_SURFACE('',#372,0.25);
#320=CYLINDRICAL_SURFACE('',#375,0.25);
#321=CYLINDRICAL_SURFACE('',#377,0.140625);
#322=CYLINDRICAL_SURFACE('',#379,0.140625);
#323=CYLINDRICAL_SURFACE('',#381,0.140625);
#324=CYLINDRICAL_SURFACE('',#383,0.140625);
#325=ADVANCED_FACE('',(#77,#53),#313,.F.);
#326=ADVANCED_FACE('',(#78,#54),#314,.F.);
#327=ADVANCED_FACE('',(#79,#55),#315,.F.);
#328=ADVANCED_FACE('',(#80,#56),#316,.F.);
#329=ADVANCED_FACE('',(#81),#317,.T.);
#330=ADVANCED_FACE('',(#82),#15,.T.);
#331=ADVANCED_FACE('',(#83,#57,#58,#59,#60,#61,#62,#63,#64),#16,.F.);
#332=ADVANCED_FACE('',(#84),#318,.T.);
#333=ADVANCED_FACE('',(#85),#17,.T.);
#334=ADVANCED_FACE('',(#86),#319,.T.);
#335=ADVANCED_FACE('',(#87),#18,.T.);
#336=ADVANCED_FACE('',(#88),#320,.T.);
#337=ADVANCED_FACE('',(#89,#65),#321,.F.);
#338=ADVANCED_FACE('',(#90,#66),#322,.F.);
#339=ADVANCED_FACE('',(#91,#67),#323,.F.);
#340=ADVANCED_FACE('',(#92,#68),#324,.F.);
#341=ADVANCED_FACE('',(#93),#19,.T.);
#342=ADVANCED_FACE('',(#94,#69,#70,#71,#72,#73,#74,#75,#76),#20,.T.);
#343=CLOSED_SHELL('',(#325,#326,#327,#328,#329,#330,#331,#332,#333,#334,
#335,#336,#337,#338,#339,#340,#341,#342));
#344=AXIS2_PLACEMENT_3D('placement',#489,#387,#388);
#345=AXIS2_PLACEMENT_3D('',#490,#389,#390);
#346=AXIS2_PLACEMENT_3D('',#492,#391,#392);
#347=AXIS2_PLACEMENT_3D('',#494,#393,#394);
#348=AXIS2_PLACEMENT_3D('',#495,#395,#396);
#349=AXIS2_PLACEMENT_3D('',#497,#397,#398);
#350=AXIS2_PLACEMENT_3D('',#499,#399,#400);
#351=AXIS2_PLACEMENT_3D('',#500,#401,#402);
#352=AXIS2_PLACEMENT_3D('',#502,#403,#404);
#353=AXIS2_PLACEMENT_3D('',#504,#405,#406);
#354=AXIS2_PLACEMENT_3D('',#505,#407,#408);
#355=AXIS2_PLACEMENT_3D('',#507,#409,#410);
#356=AXIS2_PLACEMENT_3D('',#509,#411,#412);
#357=AXIS2_PLACEMENT_3D('',#510,#413,#414);
#358=AXIS2_PLACEMENT_3D('',#513,#415,#416);
#359=AXIS2_PLACEMENT_3D('',#517,#418,#419);
#360=AXIS2_PLACEMENT_3D('',#519,#421,#422);
#361=AXIS2_PLACEMENT_3D('',#525,#426,#427);
#362=AXIS2_PLACEMENT_3D('',#529,#429,#430);
#363=AXIS2_PLACEMENT_3D('',#533,#432,#433);
#364=AXIS2_PLACEMENT_3D('',#536,#435,#436);
#365=AXIS2_PLACEMENT_3D('',#538,#437,#438);
#366=AXIS2_PLACEMENT_3D('',#540,#439,#440);
#367=AXIS2_PLACEMENT_3D('',#542,#441,#442);
#368=AXIS2_PLACEMENT_3D('',#544,#443,#444);
#369=AXIS2_PLACEMENT_3D('',#545,#445,#446);
#370=AXIS2_PLACEMENT_3D('',#547,#447,#448);
#371=AXIS2_PLACEMENT_3D('',#549,#450,#451);
#372=AXIS2_PLACEMENT_3D('',#553,#454,#455);
#373=AXIS2_PLACEMENT_3D('',#555,#456,#457);
#374=AXIS2_PLACEMENT_3D('',#557,#459,#460);
#375=AXIS2_PLACEMENT_3D('',#561,#463,#464);
#376=AXIS2_PLACEMENT_3D('',#563,#465,#466);
#377=AXIS2_PLACEMENT_3D('',#565,#468,#469);
#378=AXIS2_PLACEMENT_3D('',#567,#470,#471);
#379=AXIS2_PLACEMENT_3D('',#568,#472,#473);
#380=AXIS2_PLACEMENT_3D('',#570,#474,#475);
#381=AXIS2_PLACEMENT_3D('',#571,#476,#477);
#382=AXIS2_PLACEMENT_3D('',#573,#478,#479);
#383=AXIS2_PLACEMENT_3D('',#574,#480,#481);
#384=AXIS2_PLACEMENT_3D('',#576,#482,#483);
#385=AXIS2_PLACEMENT_3D('',#577,#484,#485);
#386=AXIS2_PLACEMENT_3D('',#579,#487,#488);
#387=DIRECTION('axis',(0.,0.,1.));
#388=DIRECTION('refdir',(1.,0.,0.));
#389=DIRECTION('center_axis',(0.,0.,-1.));
#390=DIRECTION('ref_axis',(-1.,0.,0.));
#391=DIRECTION('center_axis',(0.,0.,1.));
#392=DIRECTION('ref_axis',(-1.,0.,0.));
#393=DIRECTION('center_axis',(0.,0.,-1.));
#394=DIRECTION('ref_axis',(-1.,0.,0.));
#395=DIRECTION('center_axis',(0.,0.,-1.));
#396=DIRECTION('ref_axis',(-1.,0.,0.));
#397=DIRECTION('center_axis',(0.,0.,1.));
#398=DIRECTION('ref_axis',(-1.,0.,0.));
#399=DIRECTION('center_axis',(0.,0.,-1.));
#400=DIRECTION('ref_axis',(-1.,0.,0.));
#401=DIRECTION('center_axis',(0.,0.,-1.));
#402=DIRECTION('ref_axis',(-1.,0.,0.));
#403=DIRECTION('center_axis',(0.,0.,1.));
#404=DIRECTION('ref_axis',(-1.,0.,0.));
#405=DIRECTION('center_axis',(0.,0.,-1.));
#406=DIRECTION('ref_axis',(-1.,0.,0.));
#407=DIRECTION('center_axis',(0.,0.,-1.));
#408=DIRECTION('ref_axis',(-1.,0.,0.));
#409=DIRECTION('center_axis',(0.,0.,1.));
#410=DIRECTION('ref_axis',(-1.,0.,0.));
#411=DIRECTION('center_axis',(0.,0.,-1.));
#412=DIRECTION('ref_axis',(-1.,0.,0.));
#413=DIRECTION('center_axis',(0.,0.,1.));
#414=DIRECTION('ref_axis',(-0.707106781186546,-0.70710678118655,0.));
#415=DIRECTION('center_axis',(0.,0.,-1.));
#416=DIRECTION('ref_axis',(-0.707106781186546,-0.70710678118655,0.));
#417=DIRECTION('',(0.,0.,-1.));
#418=DIRECTION('center_axis',(0.,0.,1.));
#419=DIRECTION('ref_axis',(-0.707106781186546,-0.70710678118655,0.));
#420=DIRECTION('',(0.,0.,1.));
#421=DIRECTION('center_axis',(1.4532012184479E-16,-1.,0.));
#422=DIRECTION('ref_axis',(0.,0.,-1.));
#423=DIRECTION('',(1.,1.4532012184479E-16,0.));
#424=DIRECTION('',(0.,0.,-1.));
#425=DIRECTION('',(-1.,-1.4532012184479E-16,0.));
#426=DIRECTION('center_axis',(0.,0.,1.));
#427=DIRECTION('ref_axis',(1.,0.,0.));
#428=DIRECTION('',(7.2660060922395E-17,-1.,0.));
#429=DIRECTION('center_axis',(0.,0.,1.));
#430=DIRECTION('ref_axis',(-0.707106781186546,0.70710678118655,0.));
#431=DIRECTION('',(-1.,-4.3596036553437E-16,0.));
#432=DIRECTION('center_axis',(0.,0.,1.));
#433=DIRECTION('ref_axis',(0.707106781186546,0.70710678118655,0.));
#434=DIRECTION('',(-2.17980182767185E-16,1.,0.));
#435=DIRECTION('center_axis',(0.,0.,1.));
#436=DIRECTION('ref_axis',(0.707106781186548,-0.707106781186548,0.));
#437=DIRECTION('center_axis',(0.,0.,1.));
#438=DIRECTION('ref_axis',(-1.,0.,0.));
#439=DIRECTION('center_axis',(0.,0.,1.));
#440=DIRECTION('ref_axis',(-1.,0.,0.));
#441=DIRECTION('center_axis',(0.,0.,1.));
#442=DIRECTION('ref_axis',(-1.,0.,0.));
#443=DIRECTION('center_axis',(0.,0.,1.));
#444=DIRECTION('ref_axis',(-1.,0.,0.));
#445=DIRECTION('center_axis',(0.,0.,1.));
#446=DIRECTION('ref_axis',(0.707106781186548,-0.707106781186548,0.));
#447=DIRECTION('center_axis',(0.,0.,-1.));
#448=DIRECTION('ref_axis',(0.707106781186548,-0.707106781186548,0.));
#449=DIRECTION('',(0.,0.,1.));
#450=DIRECTION('center_axis',(1.,2.17980182767185E-16,0.));
#451=DIRECTION('ref_axis',(0.,0.,-1.));
#452=DIRECTION('',(0.,0.,-1.));
#453=DIRECTION('',(2.17980182767185E-16,-1.,0.));
#454=DIRECTION('center_axis',(0.,0.,1.));
#455=DIRECTION('ref_axis',(0.707106781186546,0.70710678118655,0.));
#456=DIRECTION('center_axis',(0.,0.,-1.));
#457=DIRECTION('ref_axis',(0.707106781186546,0.70710678118655,0.));
#458=DIRECTION('',(0.,0.,1.));
#459=DIRECTION('center_axis',(-4.3596036553437E-16,1.,0.));
#460=DIRECTION('ref_axis',(0.,0.,1.));
#461=DIRECTION('',(0.,0.,-1.));
#462=DIRECTION('',(1.,4.3596036553437E-16,0.));
#463=DIRECTION('center_axis',(0.,0.,1.));
#464=DIRECTION('ref_axis',(-0.707106781186546,0.70710678118655,0.));
#465=DIRECTION('center_axis',(0.,0.,-1.));
#466=DIRECTION('ref_axis',(-0.707106781186546,0.70710678118655,0.));
#467=DIRECTION('',(0.,0.,1.));
#468=DIRECTION('center_axis',(0.,0.,1.));
#469=DIRECTION('ref_axis',(-1.,0.,0.));
#470=DIRECTION('center_axis',(0.,0.,-1.));
#471=DIRECTION('ref_axis',(-1.,0.,0.));
#472=DIRECTION('center_axis',(0.,0.,1.));
#473=DIRECTION('ref_axis',(-1.,0.,0.));
#474=DIRECTION('center_axis',(0.,0.,-1.));
#475=DIRECTION('ref_axis',(-1.,0.,0.));
#476=DIRECTION('center_axis',(0.,0.,1.));
#477=DIRECTION('ref_axis',(-1.,0.,0.));
#478=DIRECTION('center_axis',(0.,0.,-1.));
#479=DIRECTION('ref_axis',(-1.,0.,0.));
#480=DIRECTION('center_axis',(0.,0.,1.));
#481=DIRECTION('ref_axis',(-1.,0.,0.));
#482=DIRECTION('center_axis',(0.,0.,-1.));
#483=DIRECTION('ref_axis',(-1.,0.,0.));
#484=DIRECTION('center_axis',(-1.,-7.26600609223949E-17,0.));
#485=DIRECTION('ref_axis',(0.,0.,1.));
#486=DIRECTION('',(-7.2660060922395E-17,1.,0.));
#487=DIRECTION('center_axis',(0.,0.,1.));
#488=DIRECTION('ref_axis',(1.,0.,0.));
#489=CARTESIAN_POINT('',(0.,0.,0.));
#490=CARTESIAN_POINT('Origin',(4.4325,0.,0.125));
#491=CARTESIAN_POINT('',(4.5725,1.7145055188063E-17,0.));
#492=CARTESIAN_POINT('Origin',(4.4325,0.,0.));
#493=CARTESIAN_POINT('',(4.5725,1.7145055188063E-17,0.125));
#494=CARTESIAN_POINT('Origin',(4.4325,0.,0.125));
#495=CARTESIAN_POINT('Origin',(0.,4.4325,0.125));
#496=CARTESIAN_POINT('',(0.14,4.4325,0.));
#497=CARTESIAN_POINT('Origin',(0.,4.4325,0.));
#498=CARTESIAN_POINT('',(0.14,4.4325,0.125));
#499=CARTESIAN_POINT('Origin',(0.,4.4325,0.125));
#500=CARTESIAN_POINT('Origin',(-4.4325,0.,0.125));
#501=CARTESIAN_POINT('',(-4.2925,1.71450551880629E-17,0.));
#502=CARTESIAN_POINT('Origin',(-4.4325,0.,0.));
#503=CARTESIAN_POINT('',(-4.2925,1.71450551880629E-17,0.125));
#504=CARTESIAN_POINT('Origin',(-4.4325,0.,0.125));
#505=CARTESIAN_POINT('Origin',(0.,-4.4325,0.125));
#506=CARTESIAN_POINT('',(0.14,-4.4325,0.));
#507=CARTESIAN_POINT('Origin',(0.,-4.4325,0.));
#508=CARTESIAN_POINT('',(0.14,-4.4325,0.125));
#509=CARTESIAN_POINT('Origin',(0.,-4.4325,0.125));
#510=CARTESIAN_POINT('Origin',(-4.5625,-4.5625,0.));
#511=CARTESIAN_POINT('',(-4.5625,-4.8125,0.125));
#512=CARTESIAN_POINT('',(-4.8125,-4.5625,0.125));
#513=CARTESIAN_POINT('Origin',(-4.5625,-4.5625,0.125));
#514=CARTESIAN_POINT('',(-4.8125,-4.5625,0.));
#515=CARTESIAN_POINT('',(-4.8125,-4.5625,0.));
#516=CARTESIAN_POINT('',(-4.5625,-4.8125,0.));
#517=CARTESIAN_POINT('Origin',(-4.5625,-4.5625,0.));
#518=CARTESIAN_POINT('',(-4.5625,-4.8125,0.));
#519=CARTESIAN_POINT('Origin',(4.8125,-4.8125,0.));
#520=CARTESIAN_POINT('',(4.5625,-4.8125,0.));
#521=CARTESIAN_POINT('',(-4.8125,-4.8125,0.));
#522=CARTESIAN_POINT('',(4.5625,-4.8125,0.125));
#523=CARTESIAN_POINT('',(4.5625,-4.8125,0.));
#524=CARTESIAN_POINT('',(-4.8125,-4.8125,0.125));
#525=CARTESIAN_POINT('Origin',(3.49676543189026E-16,-5.40409203110312E-16,
0.));
#526=CARTESIAN_POINT('',(-4.8125,4.5625,0.));
#527=CARTESIAN_POINT('',(-4.8125,4.8125,0.));
#528=CARTESIAN_POINT('',(-4.5625,4.8125,0.));
#529=CARTESIAN_POINT('Origin',(-4.5625,4.5625,0.));
#530=CARTESIAN_POINT('',(4.5625,4.8125,0.));
#531=CARTESIAN_POINT('',(4.8125,4.8125,0.));
#532=CARTESIAN_POINT('',(4.8125,4.5625,0.));
#533=CARTESIAN_POINT('Origin',(4.5625,4.5625,0.));
#534=CARTESIAN_POINT('',(4.8125,-4.5625,0.));
#535=CARTESIAN_POINT('',(4.8125,-4.8125,0.));
#536=CARTESIAN_POINT('Origin',(4.5625,-4.5625,0.));
#537=CARTESIAN_POINT('',(-4.171875,4.3125,0.));
#538=CARTESIAN_POINT('Origin',(-4.3125,4.3125,0.));
#539=CARTESIAN_POINT('',(-4.171875,-4.3125,0.));
#540=CARTESIAN_POINT('Origin',(-4.3125,-4.3125,0.));
#541=CARTESIAN_POINT('',(4.453125,-4.3125,0.));
#542=CARTESIAN_POINT('Origin',(4.3125,-4.3125,0.));
#543=CARTESIAN_POINT('',(4.453125,4.3125,0.));
#544=CARTESIAN_POINT('Origin',(4.3125,4.3125,0.));
#545=CARTESIAN_POINT('Origin',(4.5625,-4.5625,0.));
#546=CARTESIAN_POINT('',(4.8125,-4.5625,0.125));
#547=CARTESIAN_POINT('Origin',(4.5625,-4.5625,0.125));
#548=CARTESIAN_POINT('',(4.8125,-4.5625,0.));
#549=CARTESIAN_POINT('Origin',(4.8125,4.8125,0.));
#550=CARTESIAN_POINT('',(4.8125,4.5625,0.125));
#551=CARTESIAN_POINT('',(4.8125,4.5625,0.));
#552=CARTESIAN_POINT('',(4.8125,-4.8125,0.125));
#553=CARTESIAN_POINT('Origin',(4.5625,4.5625,0.));
#554=CARTESIAN_POINT('',(4.5625,4.8125,0.125));
#555=CARTESIAN_POINT('Origin',(4.5625,4.5625,0.125));
#556=CARTESIAN_POINT('',(4.5625,4.8125,0.));
#557=CARTESIAN_POINT('Origin',(-4.8125,4.8125,0.));
#558=CARTESIAN_POINT('',(-4.5625,4.8125,0.125));
#559=CARTESIAN_POINT('',(-4.5625,4.8125,0.));
#560=CARTESIAN_POINT('',(4.8125,4.8125,0.125));
#561=CARTESIAN_POINT('Origin',(-4.5625,4.5625,0.));
#562=CARTESIAN_POINT('',(-4.8125,4.5625,0.125));
#563=CARTESIAN_POINT('Origin',(-4.5625,4.5625,0.125));
#564=CARTESIAN_POINT('',(-4.8125,4.5625,0.));
#565=CARTESIAN_POINT('Origin',(-4.3125,4.3125,0.));
#566=CARTESIAN_POINT('',(-4.171875,4.3125,0.125));
#567=CARTESIAN_POINT('Origin',(-4.3125,4.3125,0.125));
#568=CARTESIAN_POINT('Origin',(-4.3125,-4.3125,0.));
#569=CARTESIAN_POINT('',(-4.171875,-4.3125,0.125));
#570=CARTESIAN_POINT('Origin',(-4.3125,-4.3125,0.125));
#571=CARTESIAN_POINT('Origin',(4.3125,-4.3125,0.));
#572=CARTESIAN_POINT('',(4.453125,-4.3125,0.125));
#573=CARTESIAN_POINT('Origin',(4.3125,-4.3125,0.125));
#574=CARTESIAN_POINT('Origin',(4.3125,4.3125,0.));
#575=CARTESIAN_POINT('',(4.453125,4.3125,0.125));
#576=CARTESIAN_POINT('Origin',(4.3125,4.3125,0.125));
#577=CARTESIAN_POINT('Origin',(-4.8125,-4.8125,0.));
#578=CARTESIAN_POINT('',(-4.8125,4.8125,0.125));
#579=CARTESIAN_POINT('Origin',(3.49676543189026E-16,-5.24514814783538E-16,
0.125));
#580=UNCERTAINTY_MEASURE_WITH_UNIT(LENGTH_MEASURE(0.000393700787401575),
#584,'DISTANCE_ACCURACY_VALUE',
'Maximum model space distance between geometric entities at asserted c
onnectivities');
#581=UNCERTAINTY_MEASURE_WITH_UNIT(LENGTH_MEASURE(1.E-6),#585,
'DISTANCE_ACCURACY_VALUE',
'Maximum model space distance between geometric entities at asserted c
onnectivities');
#582=(
GEOMETRIC_REPRESENTATION_CONTEXT(3)
GLOBAL_UNCERTAINTY_ASSIGNED_CONTEXT((#580))
GLOBAL_UNIT_ASSIGNED_CONTEXT((#584,#590,#587))
REPRESENTATION_CONTEXT('','3D')
);
#583=(
GEOMETRIC_REPRESENTATION_CONTEXT(3)
GLOBAL_UNCERTAINTY_ASSIGNED_CONTEXT((#581))
GLOBAL_UNIT_ASSIGNED_CONTEXT((#585,#590,#587))
REPRESENTATION_CONTEXT('','3D')
);
#584=(
CONVERSION_BASED_UNIT('__CONSTANT UNIT inch',#586)
LENGTH_UNIT()
NAMED_UNIT(#589)
);
#585=(
LENGTH_UNIT()
NAMED_UNIT(*)
SI_UNIT(.MILLI.,.METRE.)
);
#586=LENGTH_MEASURE_WITH_UNIT(LENGTH_MEASURE(25.4),#585);
#587=(
NAMED_UNIT(*)
SI_UNIT($,.STERADIAN.)
SOLID_ANGLE_UNIT()
);
#588=DIMENSIONAL_EXPONENTS(0.,0.,0.,0.,0.,0.,0.);
#589=DIMENSIONAL_EXPONENTS(1.,0.,0.,0.,0.,0.,0.);
#590=(
CONVERSION_BASED_UNIT('degree',#592)
NAMED_UNIT(#588)
PLANE_ANGLE_UNIT()
);
#591=(
NAMED_UNIT(*)
PLANE_ANGLE_UNIT()
SI_UNIT($,.RADIAN.)
);
#592=PLANE_ANGLE_MEASURE_WITH_UNIT(PLANE_ANGLE_MEASURE(0.01745329252),#591);
#593=SHAPE_DEFINITION_REPRESENTATION(#594,#595);
#594=PRODUCT_DEFINITION_SHAPE('',$,#597);
#595=SHAPE_REPRESENTATION('',(#344),#582);
#596=PRODUCT_DEFINITION_CONTEXT('part definition',#601,'design');
#597=PRODUCT_DEFINITION('JWE','JWE',#598,#596);
#598=PRODUCT_DEFINITION_FORMATION('',$,#603);
#599=PRODUCT_RELATED_PRODUCT_CATEGORY('JWE','JWE',(#603));
#600=APPLICATION_PROTOCOL_DEFINITION('international standard',
'automotive_design',2009,#601);
#601=APPLICATION_CONTEXT(
'Core Data for Automotive Mechanical Design Process');
#602=PRODUCT_CONTEXT('part definition',#601,'mechanical');
#603=PRODUCT('JWE','JWE',$,(#602));
#604=PRESENTATION_STYLE_ASSIGNMENT((#605));
#605=SURFACE_STYLE_USAGE(.BOTH.,#606);
#606=SURFACE_SIDE_STYLE('',(#607));
#607=SURFACE_STYLE_FILL_AREA(#608);
#608=FILL_AREA_STYLE('',(#609));
#609=FILL_AREA_STYLE_COLOUR('',#610);
#610=COLOUR_RGB('',0.63921568627451,0.63921568627451,0.686274509803922);
ENDSEC;
END-ISO-10303-21;
