ISO-10303-21;
HEADER;
/* Generated by software containing ST-Developer
 * from STEP Tools, Inc. (www.steptools.com) 
 */

FILE_DESCRIPTION(
/* description */ ('ALUMINUM CLOSE NIPPLE'),
/* implementation_level */ '2;1');

FILE_NAME(
/* name */ 
'D:\\kishore\\killark backup work\\Web drawing\\GE&AN Web drawing\\AN\\
STEP\\KIL_AN-11.stp',
/* time_stamp */ '2021-03-01T14:13:57+06:00',
/* author */ ('kr'),
/* organization */ (''),
/* preprocessor_version */ 'ST-DEVELOPER v18',
/* originating_system */ 'Autodesk Inventor 2020',
/* authorisation */ '');

FILE_SCHEMA (('AUTOMOTIVE_DESIGN { 1 0 10303 214 3 1 1 }'));
ENDSEC;

DATA;
#10=MECHANICAL_DESIGN_GEOMETRIC_PRESENTATION_REPRESENTATION('',(#13),#241);
#11=SHAPE_REPRESENTATION_RELATIONSHIP('SRR','None',#251,#12);
#12=ADVANCED_BREP_SHAPE_REPRESENTATION('',(#14),#240);
#13=STYLED_ITEM('',(#260),#14);
#14=MANIFOLD_SOLID_BREP('Solid2',#126);
#15=FACE_BOUND('',#35,.T.);
#16=FACE_BOUND('',#39,.T.);
#17=PLANE('',#154);
#18=PLANE('',#161);
#19=CONICAL_SURFACE('',#149,2.7192513505965,0.801018860202791);
#20=CONICAL_SURFACE('',#152,2.78125,0.0312413936106985);
#21=CONICAL_SURFACE('',#155,2.7192513505965,0.801018860202791);
#22=CONICAL_SURFACE('',#158,2.78125,0.0312413936106985);
#23=FACE_OUTER_BOUND('',#31,.T.);
#24=FACE_OUTER_BOUND('',#32,.T.);
#25=FACE_OUTER_BOUND('',#33,.T.);
#26=FACE_OUTER_BOUND('',#34,.T.);
#27=FACE_OUTER_BOUND('',#36,.T.);
#28=FACE_OUTER_BOUND('',#37,.T.);
#29=FACE_OUTER_BOUND('',#38,.T.);
#30=FACE_OUTER_BOUND('',#40,.T.);
#31=EDGE_LOOP('',(#86,#87,#88,#89));
#32=EDGE_LOOP('',(#90,#91,#92,#93));
#33=EDGE_LOOP('',(#94,#95,#96,#97));
#34=EDGE_LOOP('',(#98));
#35=EDGE_LOOP('',(#99));
#36=EDGE_LOOP('',(#100,#101,#102,#103));
#37=EDGE_LOOP('',(#104,#105,#106,#107,#108));
#38=EDGE_LOOP('',(#109));
#39=EDGE_LOOP('',(#110));
#40=EDGE_LOOP('',(#111,#112,#113,#114,#115));
#41=LINE('',#210,#47);
#42=LINE('',#216,#48);
#43=LINE('',#220,#49);
#44=LINE('',#227,#50);
#45=LINE('',#231,#51);
#46=LINE('',#237,#52);
#47=VECTOR('',#169,2.53125);
#48=VECTOR('',#176,2.7192513505965);
#49=VECTOR('',#181,2.78125);
#50=VECTOR('',#190,2.7192513505965);
#51=VECTOR('',#195,2.78125);
#52=VECTOR('',#204,2.78125);
#53=CIRCLE('',#147,2.53125);
#54=CIRCLE('',#148,2.53125);
#55=CIRCLE('',#150,2.73536441796832);
#56=CIRCLE('',#151,2.70313828322467);
#57=CIRCLE('',#153,2.78125);
#58=CIRCLE('',#156,2.73536441796832);
#59=CIRCLE('',#157,2.70313828322467);
#60=CIRCLE('',#159,2.78125);
#61=CIRCLE('',#160,2.78125);
#62=VERTEX_POINT('',#207);
#63=VERTEX_POINT('',#209);
#64=VERTEX_POINT('',#213);
#65=VERTEX_POINT('',#215);
#66=VERTEX_POINT('',#219);
#67=VERTEX_POINT('',#224);
#68=VERTEX_POINT('',#226);
#69=VERTEX_POINT('',#230);
#70=VERTEX_POINT('',#232);
#71=EDGE_CURVE('',#62,#62,#53,.T.);
#72=EDGE_CURVE('',#62,#63,#41,.T.);
#73=EDGE_CURVE('',#63,#63,#54,.T.);
#74=EDGE_CURVE('',#64,#64,#55,.T.);
#75=EDGE_CURVE('',#64,#65,#42,.T.);
#76=EDGE_CURVE('',#65,#65,#56,.T.);
#77=EDGE_CURVE('',#64,#66,#43,.T.);
#78=EDGE_CURVE('',#66,#66,#57,.T.);
#79=EDGE_CURVE('',#67,#67,#58,.T.);
#80=EDGE_CURVE('',#67,#68,#44,.T.);
#81=EDGE_CURVE('',#68,#68,#59,.T.);
#82=EDGE_CURVE('',#67,#69,#45,.T.);
#83=EDGE_CURVE('',#70,#69,#60,.T.);
#84=EDGE_CURVE('',#69,#70,#61,.T.);
#85=EDGE_CURVE('',#66,#70,#46,.T.);
#86=ORIENTED_EDGE('',*,*,#71,.F.);
#87=ORIENTED_EDGE('',*,*,#72,.T.);
#88=ORIENTED_EDGE('',*,*,#73,.F.);
#89=ORIENTED_EDGE('',*,*,#72,.F.);
#90=ORIENTED_EDGE('',*,*,#74,.T.);
#91=ORIENTED_EDGE('',*,*,#75,.T.);
#92=ORIENTED_EDGE('',*,*,#76,.T.);
#93=ORIENTED_EDGE('',*,*,#75,.F.);
#94=ORIENTED_EDGE('',*,*,#74,.F.);
#95=ORIENTED_EDGE('',*,*,#77,.T.);
#96=ORIENTED_EDGE('',*,*,#78,.F.);
#97=ORIENTED_EDGE('',*,*,#77,.F.);
#98=ORIENTED_EDGE('',*,*,#76,.F.);
#99=ORIENTED_EDGE('',*,*,#71,.T.);
#100=ORIENTED_EDGE('',*,*,#79,.T.);
#101=ORIENTED_EDGE('',*,*,#80,.T.);
#102=ORIENTED_EDGE('',*,*,#81,.T.);
#103=ORIENTED_EDGE('',*,*,#80,.F.);
#104=ORIENTED_EDGE('',*,*,#79,.F.);
#105=ORIENTED_EDGE('',*,*,#82,.T.);
#106=ORIENTED_EDGE('',*,*,#83,.F.);
#107=ORIENTED_EDGE('',*,*,#84,.F.);
#108=ORIENTED_EDGE('',*,*,#82,.F.);
#109=ORIENTED_EDGE('',*,*,#81,.F.);
#110=ORIENTED_EDGE('',*,*,#73,.T.);
#111=ORIENTED_EDGE('',*,*,#78,.T.);
#112=ORIENTED_EDGE('',*,*,#85,.T.);
#113=ORIENTED_EDGE('',*,*,#83,.T.);
#114=ORIENTED_EDGE('',*,*,#84,.T.);
#115=ORIENTED_EDGE('',*,*,#85,.F.);
#116=CYLINDRICAL_SURFACE('',#146,2.53125);
#117=CYLINDRICAL_SURFACE('',#162,2.78125);
#118=ADVANCED_FACE('',(#23),#116,.F.);
#119=ADVANCED_FACE('',(#24),#19,.T.);
#120=ADVANCED_FACE('',(#25),#20,.T.);
#121=ADVANCED_FACE('',(#26,#15),#17,.F.);
#122=ADVANCED_FACE('',(#27),#21,.T.);
#123=ADVANCED_FACE('',(#28),#22,.T.);
#124=ADVANCED_FACE('',(#29,#16),#18,.F.);
#125=ADVANCED_FACE('',(#30),#117,.T.);
#126=CLOSED_SHELL('',(#118,#119,#120,#121,#122,#123,#124,#125));
#127=DERIVED_UNIT_ELEMENT(#129,1.);
#128=DERIVED_UNIT_ELEMENT(#245,3.);
#129=(
MASS_UNIT()
NAMED_UNIT(*)
SI_UNIT($,.GRAM.)
);
#130=DERIVED_UNIT((#127,#128));
#131=MEASURE_REPRESENTATION_ITEM('density measure',
POSITIVE_RATIO_MEASURE(1.),#130);
#132=PROPERTY_DEFINITION_REPRESENTATION(#137,#134);
#133=PROPERTY_DEFINITION_REPRESENTATION(#138,#135);
#134=REPRESENTATION('material name',(#136),#240);
#135=REPRESENTATION('density',(#131),#240);
#136=DESCRIPTIVE_REPRESENTATION_ITEM('Generic','Generic');
#137=PROPERTY_DEFINITION('material property','material name',#253);
#138=PROPERTY_DEFINITION('material property','density of part',#253);
#139=DATE_TIME_ROLE('creation_date');
#140=APPLIED_DATE_AND_TIME_ASSIGNMENT(#141,#139,(#253));
#141=DATE_AND_TIME(#142,#143);
#142=CALENDAR_DATE(2011,22,7);
#143=LOCAL_TIME(13,7,5.,#144);
#144=COORDINATED_UNIVERSAL_TIME_OFFSET(0,0,.BEHIND.);
#145=AXIS2_PLACEMENT_3D('placement',#205,#163,#164);
#146=AXIS2_PLACEMENT_3D('',#206,#165,#166);
#147=AXIS2_PLACEMENT_3D('',#208,#167,#168);
#148=AXIS2_PLACEMENT_3D('',#211,#170,#171);
#149=AXIS2_PLACEMENT_3D('',#212,#172,#173);
#150=AXIS2_PLACEMENT_3D('',#214,#174,#175);
#151=AXIS2_PLACEMENT_3D('',#217,#177,#178);
#152=AXIS2_PLACEMENT_3D('',#218,#179,#180);
#153=AXIS2_PLACEMENT_3D('',#221,#182,#183);
#154=AXIS2_PLACEMENT_3D('',#222,#184,#185);
#155=AXIS2_PLACEMENT_3D('',#223,#186,#187);
#156=AXIS2_PLACEMENT_3D('',#225,#188,#189);
#157=AXIS2_PLACEMENT_3D('',#228,#191,#192);
#158=AXIS2_PLACEMENT_3D('',#229,#193,#194);
#159=AXIS2_PLACEMENT_3D('',#233,#196,#197);
#160=AXIS2_PLACEMENT_3D('',#234,#198,#199);
#161=AXIS2_PLACEMENT_3D('',#235,#200,#201);
#162=AXIS2_PLACEMENT_3D('',#236,#202,#203);
#163=DIRECTION('axis',(0.,0.,1.));
#164=DIRECTION('refdir',(1.,0.,0.));
#165=DIRECTION('center_axis',(0.,0.,-1.));
#166=DIRECTION('ref_axis',(-1.,0.,0.));
#167=DIRECTION('center_axis',(0.,0.,-1.));
#168=DIRECTION('ref_axis',(-1.,0.,0.));
#169=DIRECTION('',(0.,0.,-1.));
#170=DIRECTION('center_axis',(0.,0.,1.));
#171=DIRECTION('ref_axis',(-1.,0.,0.));
#172=DIRECTION('center_axis',(0.,5.36238514361362E-15,-1.));
#173=DIRECTION('ref_axis',(-1.,-3.07975877094962E-17,0.));
#174=DIRECTION('center_axis',(0.,0.,1.));
#175=DIRECTION('ref_axis',(-1.,-6.12323399573677E-17,0.));
#176=DIRECTION('',(-0.718065565180803,-3.66626549689907E-15,0.695975462284105));
#177=DIRECTION('center_axis',(0.,0.,-1.));
#178=DIRECTION('ref_axis',(-1.,0.,0.));
#179=DIRECTION('center_axis',(0.,0.,-1.));
#180=DIRECTION('ref_axis',(-1.,0.,0.));
#181=DIRECTION('',(0.0312363117968641,3.82534492591983E-18,-0.999512027354013));
#182=DIRECTION('center_axis',(0.,0.,-1.));
#183=DIRECTION('ref_axis',(-1.,0.,0.));
#184=DIRECTION('center_axis',(0.,0.,-1.));
#185=DIRECTION('ref_axis',(-1.,0.,0.));
#186=DIRECTION('center_axis',(0.,5.36238514361362E-15,1.));
#187=DIRECTION('ref_axis',(1.,-3.07975877094962E-17,0.));
#188=DIRECTION('center_axis',(0.,0.,-1.));
#189=DIRECTION('ref_axis',(1.,-6.12323399573677E-17,0.));
#190=DIRECTION('',(0.718065565180803,-3.66626549689907E-15,-0.695975462284105));
#191=DIRECTION('center_axis',(0.,0.,1.));
#192=DIRECTION('ref_axis',(1.,0.,0.));
#193=DIRECTION('center_axis',(0.,0.,1.));
#194=DIRECTION('ref_axis',(1.,0.,0.));
#195=DIRECTION('',(-0.0312363117968641,3.82534492591983E-18,0.999512027354013));
#196=DIRECTION('center_axis',(0.,0.,1.));
#197=DIRECTION('ref_axis',(-1.,0.,0.));
#198=DIRECTION('center_axis',(0.,0.,1.));
#199=DIRECTION('ref_axis',(-1.,0.,0.));
#200=DIRECTION('center_axis',(0.,0.,1.));
#201=DIRECTION('ref_axis',(1.,0.,0.));
#202=DIRECTION('center_axis',(0.,0.,1.));
#203=DIRECTION('ref_axis',(-1.,0.,0.));
#204=DIRECTION('',(0.,0.,-1.));
#205=CARTESIAN_POINT('',(0.,0.,0.));
#206=CARTESIAN_POINT('Origin',(0.,0.,1.5));
#207=CARTESIAN_POINT('',(2.53125,3.09988721034174E-16,1.5));
#208=CARTESIAN_POINT('Origin',(0.,0.,1.5));
#209=CARTESIAN_POINT('',(2.53125,3.09988721034174E-16,-1.5));
#210=CARTESIAN_POINT('',(2.53125,-3.09988721034174E-16,1.5));
#211=CARTESIAN_POINT('Origin',(0.,0.,-1.5));
#212=CARTESIAN_POINT('Origin',(0.,8.37463819741618E-17,1.48438262457259));
#213=CARTESIAN_POINT('',(2.73536441796832,6.69971055793294E-16,1.46876524914519));
#214=CARTESIAN_POINT('Origin',(0.,1.67492763948324E-16,1.46876524914519));
#215=CARTESIAN_POINT('',(2.70313828322467,-3.31038964620377E-16,1.5));
#216=CARTESIAN_POINT('',(2.7192513505965,-1.65519482310188E-16,1.48438262457259));
#217=CARTESIAN_POINT('Origin',(0.,0.,1.5));
#218=CARTESIAN_POINT('Origin',(0.,0.,0.0005));
#219=CARTESIAN_POINT('',(2.78125,3.40604891012858E-16,0.0005));
#220=CARTESIAN_POINT('',(2.78125,3.40604891012858E-16,0.0005));
#221=CARTESIAN_POINT('Origin',(0.,0.,0.0005));
#222=CARTESIAN_POINT('Origin',(0.,0.,1.5));
#223=CARTESIAN_POINT('Origin',(0.,8.37463819741618E-17,-1.48438262457259));
#224=CARTESIAN_POINT('',(-2.73536441796832,6.69971055793294E-16,-1.46876524914519));
#225=CARTESIAN_POINT('Origin',(0.,1.67492763948324E-16,-1.46876524914519));
#226=CARTESIAN_POINT('',(-2.70313828322467,-3.31038964620377E-16,-1.5));
#227=CARTESIAN_POINT('',(-2.7192513505965,-1.65519482310188E-16,-1.48438262457259));
#228=CARTESIAN_POINT('Origin',(0.,0.,-1.5));
#229=CARTESIAN_POINT('Origin',(0.,0.,-0.0005));
#230=CARTESIAN_POINT('',(-2.78125,3.40604891012858E-16,-0.000499999999999993));
#231=CARTESIAN_POINT('',(-2.78125,3.40604891012858E-16,-0.0005));
#232=CARTESIAN_POINT('',(2.78125,3.40604891012858E-16,-0.0005));
#233=CARTESIAN_POINT('Origin',(0.,0.,-0.0005));
#234=CARTESIAN_POINT('Origin',(0.,0.,-0.0005));
#235=CARTESIAN_POINT('Origin',(0.,0.,-1.5));
#236=CARTESIAN_POINT('Origin',(0.,0.,0.));
#237=CARTESIAN_POINT('',(2.78125,3.40604891012858E-16,0.));
#238=UNCERTAINTY_MEASURE_WITH_UNIT(LENGTH_MEASURE(0.000393700787401575),
#243,'DISTANCE_ACCURACY_VALUE',
'Maximum model space distance between geometric entities at asserted c
onnectivities');
#239=UNCERTAINTY_MEASURE_WITH_UNIT(LENGTH_MEASURE(0.000393700787401575),
#243,'DISTANCE_ACCURACY_VALUE',
'Maximum model space distance between geometric entities at asserted c
onnectivities');
#240=(
GEOMETRIC_REPRESENTATION_CONTEXT(3)
GLOBAL_UNCERTAINTY_ASSIGNED_CONTEXT((#238))
GLOBAL_UNIT_ASSIGNED_CONTEXT((#243,#247,#248))
REPRESENTATION_CONTEXT('','3D')
);
#241=(
GEOMETRIC_REPRESENTATION_CONTEXT(3)
GLOBAL_UNCERTAINTY_ASSIGNED_CONTEXT((#239))
GLOBAL_UNIT_ASSIGNED_CONTEXT((#243,#247,#248))
REPRESENTATION_CONTEXT('','3D')
);
#242=DIMENSIONAL_EXPONENTS(1.,0.,0.,0.,0.,0.,0.);
#243=(
CONVERSION_BASED_UNIT('inch',#246)
LENGTH_UNIT()
NAMED_UNIT(#242)
);
#244=(
LENGTH_UNIT()
NAMED_UNIT(*)
SI_UNIT(.MILLI.,.METRE.)
);
#245=(
LENGTH_UNIT()
NAMED_UNIT(*)
SI_UNIT(.CENTI.,.METRE.)
);
#246=LENGTH_MEASURE_WITH_UNIT(LENGTH_MEASURE(25.4),#244);
#247=(
NAMED_UNIT(*)
PLANE_ANGLE_UNIT()
SI_UNIT($,.RADIAN.)
);
#248=(
NAMED_UNIT(*)
SI_UNIT($,.STERADIAN.)
SOLID_ANGLE_UNIT()
);
#249=SHAPE_DEFINITION_REPRESENTATION(#250,#251);
#250=PRODUCT_DEFINITION_SHAPE('',$,#253);
#251=SHAPE_REPRESENTATION('',(#145),#240);
#252=PRODUCT_DEFINITION_CONTEXT('part definition',#257,'design');
#253=PRODUCT_DEFINITION('AN-11','AN-11',#254,#252);
#254=PRODUCT_DEFINITION_FORMATION('H',$,#259);
#255=PRODUCT_RELATED_PRODUCT_CATEGORY('AN-11','AN-11',(#259));
#256=APPLICATION_PROTOCOL_DEFINITION('international standard',
'automotive_design',2009,#257);
#257=APPLICATION_CONTEXT(
'Core Data for Automotive Mechanical Design Process');
#258=PRODUCT_CONTEXT('part definition',#257,'mechanical');
#259=PRODUCT('AN-11','AN-11','ALUMINUM CLOSE NIPPLE',(#258));
#260=PRESENTATION_STYLE_ASSIGNMENT((#261));
#261=SURFACE_STYLE_USAGE(.BOTH.,#264);
#262=SURFACE_STYLE_RENDERING_WITH_PROPERTIES($,#268,(#263));
#263=SURFACE_STYLE_TRANSPARENT(0.);
#264=SURFACE_SIDE_STYLE('',(#265,#262));
#265=SURFACE_STYLE_FILL_AREA(#266);
#266=FILL_AREA_STYLE('',(#267));
#267=FILL_AREA_STYLE_COLOUR('',#268);
#268=COLOUR_RGB('',0.580392156862745,0.650980392156863,0.72156862745098);
ENDSEC;
END-ISO-10303-21;
