ISO-10303-21;
HEADER;
/* Generated by software containing ST-Developer
 * from STEP Tools, Inc. (www.steptools.com) 
 */

FILE_DESCRIPTION(
/* description */ ('GASKET, 1-1/4" FORM 8 '),
/* implementation_level */ '2;1');

FILE_NAME(
/* name */ 
'C:\\Killark\\Projects\\India\\FITTINGS\\Form 8\\Covers\\Cover Gaskets
\\STEP\\KIL_GASK854N.stp',
/* time_stamp */ '2019-11-13T17:48:53+05:00',
/* author */ ('kr'),
/* organization */ (''),
/* preprocessor_version */ 'ST-DEVELOPER v16.13',
/* originating_system */ 'Autodesk Inventor 2018',
/* authorisation */ '');

FILE_SCHEMA (('AUTOMOTIVE_DESIGN { 1 0 10303 214 3 1 1 }'));
ENDSEC;

DATA;
#10=MECHANICAL_DESIGN_GEOMETRIC_PRESENTATION_REPRESENTATION('',(#13),#261);
#11=SHAPE_REPRESENTATION_RELATIONSHIP('SRR','None',#271,#12);
#12=ADVANCED_BREP_SHAPE_REPRESENTATION('',(#14),#260);
#13=STYLED_ITEM('',(#280),#14);
#14=MANIFOLD_SOLID_BREP('Solid1',#143);
#15=LINE('',#237,#23);
#16=LINE('',#240,#24);
#17=LINE('',#243,#25);
#18=LINE('',#245,#26);
#19=LINE('',#246,#27);
#20=LINE('',#250,#28);
#21=LINE('',#253,#29);
#22=LINE('',#254,#30);
#23=VECTOR('',#197,0.393700787401575);
#24=VECTOR('',#200,0.393700787401575);
#25=VECTOR('',#203,0.393700787401575);
#26=VECTOR('',#204,0.393700787401575);
#27=VECTOR('',#205,0.393700787401575);
#28=VECTOR('',#210,0.393700787401575);
#29=VECTOR('',#213,0.393700787401575);
#30=VECTOR('',#214,0.393700787401575);
#31=PLANE('',#169);
#32=PLANE('',#172);
#33=PLANE('',#175);
#34=PLANE('',#178);
#35=FACE_BOUND('',#50,.T.);
#36=FACE_BOUND('',#52,.T.);
#37=FACE_BOUND('',#54,.T.);
#38=FACE_BOUND('',#55,.T.);
#39=FACE_BOUND('',#61,.T.);
#40=FACE_BOUND('',#62,.T.);
#41=FACE_OUTER_BOUND('',#49,.T.);
#42=FACE_OUTER_BOUND('',#51,.T.);
#43=FACE_OUTER_BOUND('',#53,.T.);
#44=FACE_OUTER_BOUND('',#56,.T.);
#45=FACE_OUTER_BOUND('',#57,.T.);
#46=FACE_OUTER_BOUND('',#58,.T.);
#47=FACE_OUTER_BOUND('',#59,.T.);
#48=FACE_OUTER_BOUND('',#60,.T.);
#49=EDGE_LOOP('',(#99));
#50=EDGE_LOOP('',(#100));
#51=EDGE_LOOP('',(#101));
#52=EDGE_LOOP('',(#102));
#53=EDGE_LOOP('',(#103,#104,#105,#106));
#54=EDGE_LOOP('',(#107));
#55=EDGE_LOOP('',(#108));
#56=EDGE_LOOP('',(#109,#110,#111,#112));
#57=EDGE_LOOP('',(#113,#114,#115,#116));
#58=EDGE_LOOP('',(#117,#118,#119,#120));
#59=EDGE_LOOP('',(#121,#122,#123,#124));
#60=EDGE_LOOP('',(#125,#126,#127,#128));
#61=EDGE_LOOP('',(#129));
#62=EDGE_LOOP('',(#130));
#63=CIRCLE('',#164,0.11);
#64=CIRCLE('',#165,0.11);
#65=CIRCLE('',#167,0.11);
#66=CIRCLE('',#168,0.11);
#67=CIRCLE('',#170,1.095);
#68=CIRCLE('',#171,1.095);
#69=CIRCLE('',#174,1.095);
#70=CIRCLE('',#177,1.095);
#71=VERTEX_POINT('',#223);
#72=VERTEX_POINT('',#225);
#73=VERTEX_POINT('',#228);
#74=VERTEX_POINT('',#230);
#75=VERTEX_POINT('',#233);
#76=VERTEX_POINT('',#234);
#77=VERTEX_POINT('',#236);
#78=VERTEX_POINT('',#238);
#79=VERTEX_POINT('',#242);
#80=VERTEX_POINT('',#244);
#81=VERTEX_POINT('',#248);
#82=VERTEX_POINT('',#252);
#83=EDGE_CURVE('',#71,#71,#63,.T.);
#84=EDGE_CURVE('',#72,#72,#64,.T.);
#85=EDGE_CURVE('',#73,#73,#65,.T.);
#86=EDGE_CURVE('',#74,#74,#66,.T.);
#87=EDGE_CURVE('',#75,#76,#67,.T.);
#88=EDGE_CURVE('',#76,#77,#15,.T.);
#89=EDGE_CURVE('',#77,#78,#68,.T.);
#90=EDGE_CURVE('',#78,#75,#16,.T.);
#91=EDGE_CURVE('',#79,#76,#17,.T.);
#92=EDGE_CURVE('',#80,#79,#18,.T.);
#93=EDGE_CURVE('',#77,#80,#19,.T.);
#94=EDGE_CURVE('',#81,#80,#69,.T.);
#95=EDGE_CURVE('',#78,#81,#20,.T.);
#96=EDGE_CURVE('',#82,#81,#21,.T.);
#97=EDGE_CURVE('',#75,#82,#22,.T.);
#98=EDGE_CURVE('',#79,#82,#70,.T.);
#99=ORIENTED_EDGE('',*,*,#83,.F.);
#100=ORIENTED_EDGE('',*,*,#84,.F.);
#101=ORIENTED_EDGE('',*,*,#85,.F.);
#102=ORIENTED_EDGE('',*,*,#86,.F.);
#103=ORIENTED_EDGE('',*,*,#87,.T.);
#104=ORIENTED_EDGE('',*,*,#88,.T.);
#105=ORIENTED_EDGE('',*,*,#89,.T.);
#106=ORIENTED_EDGE('',*,*,#90,.T.);
#107=ORIENTED_EDGE('',*,*,#83,.T.);
#108=ORIENTED_EDGE('',*,*,#85,.T.);
#109=ORIENTED_EDGE('',*,*,#91,.F.);
#110=ORIENTED_EDGE('',*,*,#92,.F.);
#111=ORIENTED_EDGE('',*,*,#93,.F.);
#112=ORIENTED_EDGE('',*,*,#88,.F.);
#113=ORIENTED_EDGE('',*,*,#93,.T.);
#114=ORIENTED_EDGE('',*,*,#94,.F.);
#115=ORIENTED_EDGE('',*,*,#95,.F.);
#116=ORIENTED_EDGE('',*,*,#89,.F.);
#117=ORIENTED_EDGE('',*,*,#95,.T.);
#118=ORIENTED_EDGE('',*,*,#96,.F.);
#119=ORIENTED_EDGE('',*,*,#97,.F.);
#120=ORIENTED_EDGE('',*,*,#90,.F.);
#121=ORIENTED_EDGE('',*,*,#97,.T.);
#122=ORIENTED_EDGE('',*,*,#98,.F.);
#123=ORIENTED_EDGE('',*,*,#91,.T.);
#124=ORIENTED_EDGE('',*,*,#87,.F.);
#125=ORIENTED_EDGE('',*,*,#98,.T.);
#126=ORIENTED_EDGE('',*,*,#96,.T.);
#127=ORIENTED_EDGE('',*,*,#94,.T.);
#128=ORIENTED_EDGE('',*,*,#92,.T.);
#129=ORIENTED_EDGE('',*,*,#84,.T.);
#130=ORIENTED_EDGE('',*,*,#86,.T.);
#131=CYLINDRICAL_SURFACE('',#163,0.11);
#132=CYLINDRICAL_SURFACE('',#166,0.11);
#133=CYLINDRICAL_SURFACE('',#173,1.095);
#134=CYLINDRICAL_SURFACE('',#176,1.095);
#135=ADVANCED_FACE('',(#41,#35),#131,.F.);
#136=ADVANCED_FACE('',(#42,#36),#132,.F.);
#137=ADVANCED_FACE('',(#43,#37,#38),#31,.F.);
#138=ADVANCED_FACE('',(#44),#32,.T.);
#139=ADVANCED_FACE('',(#45),#133,.T.);
#140=ADVANCED_FACE('',(#46),#33,.T.);
#141=ADVANCED_FACE('',(#47),#134,.T.);
#142=ADVANCED_FACE('',(#48,#39,#40),#34,.T.);
#143=CLOSED_SHELL('',(#135,#136,#137,#138,#139,#140,#141,#142));
#144=DERIVED_UNIT_ELEMENT(#146,0.);
#145=DERIVED_UNIT_ELEMENT(#265,0.);
#146=(
MASS_UNIT()
NAMED_UNIT(*)
SI_UNIT($,.GRAM.)
);
#147=DERIVED_UNIT((#144,#145));
#148=MEASURE_REPRESENTATION_ITEM('density measure',
POSITIVE_RATIO_MEASURE(0.93),#147);
#149=PROPERTY_DEFINITION_REPRESENTATION(#154,#151);
#150=PROPERTY_DEFINITION_REPRESENTATION(#155,#152);
#151=REPRESENTATION('material name',(#153),#260);
#152=REPRESENTATION('density',(#148),#260);
#153=DESCRIPTIVE_REPRESENTATION_ITEM('Rubber','Rubber');
#154=PROPERTY_DEFINITION('material property','material name',#273);
#155=PROPERTY_DEFINITION('material property','density of part',#273);
#156=DATE_TIME_ROLE('creation_date');
#157=APPLIED_DATE_AND_TIME_ASSIGNMENT(#158,#156,(#273));
#158=DATE_AND_TIME(#159,#160);
#159=CALENDAR_DATE(2014,22,12);
#160=LOCAL_TIME(12,59,43.,#161);
#161=COORDINATED_UNIVERSAL_TIME_OFFSET(0,0,.BEHIND.);
#162=AXIS2_PLACEMENT_3D('placement',#221,#179,#180);
#163=AXIS2_PLACEMENT_3D('',#222,#181,#182);
#164=AXIS2_PLACEMENT_3D('',#224,#183,#184);
#165=AXIS2_PLACEMENT_3D('',#226,#185,#186);
#166=AXIS2_PLACEMENT_3D('',#227,#187,#188);
#167=AXIS2_PLACEMENT_3D('',#229,#189,#190);
#168=AXIS2_PLACEMENT_3D('',#231,#191,#192);
#169=AXIS2_PLACEMENT_3D('',#232,#193,#194);
#170=AXIS2_PLACEMENT_3D('',#235,#195,#196);
#171=AXIS2_PLACEMENT_3D('',#239,#198,#199);
#172=AXIS2_PLACEMENT_3D('',#241,#201,#202);
#173=AXIS2_PLACEMENT_3D('',#247,#206,#207);
#174=AXIS2_PLACEMENT_3D('',#249,#208,#209);
#175=AXIS2_PLACEMENT_3D('',#251,#211,#212);
#176=AXIS2_PLACEMENT_3D('',#255,#215,#216);
#177=AXIS2_PLACEMENT_3D('',#256,#217,#218);
#178=AXIS2_PLACEMENT_3D('',#257,#219,#220);
#179=DIRECTION('axis',(0.,0.,1.));
#180=DIRECTION('refdir',(1.,0.,0.));
#181=DIRECTION('center_axis',(0.,0.,1.));
#182=DIRECTION('ref_axis',(-1.,0.,0.));
#183=DIRECTION('center_axis',(0.,0.,1.));
#184=DIRECTION('ref_axis',(-1.,0.,0.));
#185=DIRECTION('center_axis',(0.,0.,-1.));
#186=DIRECTION('ref_axis',(-1.,0.,0.));
#187=DIRECTION('center_axis',(0.,0.,1.));
#188=DIRECTION('ref_axis',(-1.,0.,0.));
#189=DIRECTION('center_axis',(0.,0.,1.));
#190=DIRECTION('ref_axis',(-1.,0.,0.));
#191=DIRECTION('center_axis',(0.,0.,-1.));
#192=DIRECTION('ref_axis',(-1.,0.,0.));
#193=DIRECTION('center_axis',(0.,0.,1.));
#194=DIRECTION('ref_axis',(1.,0.,0.));
#195=DIRECTION('center_axis',(0.,0.,-1.));
#196=DIRECTION('ref_axis',(0.,-1.,0.));
#197=DIRECTION('',(-1.,0.,0.));
#198=DIRECTION('center_axis',(0.,0.,-1.));
#199=DIRECTION('ref_axis',(0.,1.,0.));
#200=DIRECTION('',(1.,0.,0.));
#201=DIRECTION('center_axis',(0.,-1.,0.));
#202=DIRECTION('ref_axis',(1.,0.,0.));
#203=DIRECTION('',(0.,0.,-1.));
#204=DIRECTION('',(1.,0.,0.));
#205=DIRECTION('',(0.,0.,1.));
#206=DIRECTION('center_axis',(0.,0.,1.));
#207=DIRECTION('ref_axis',(0.,1.,0.));
#208=DIRECTION('center_axis',(0.,0.,1.));
#209=DIRECTION('ref_axis',(0.,1.,0.));
#210=DIRECTION('',(0.,0.,1.));
#211=DIRECTION('center_axis',(0.,1.,0.));
#212=DIRECTION('ref_axis',(-1.,0.,0.));
#213=DIRECTION('',(-1.,0.,0.));
#214=DIRECTION('',(0.,0.,1.));
#215=DIRECTION('center_axis',(0.,0.,1.));
#216=DIRECTION('ref_axis',(0.,-1.,0.));
#217=DIRECTION('center_axis',(0.,0.,1.));
#218=DIRECTION('ref_axis',(0.,-1.,0.));
#219=DIRECTION('center_axis',(0.,0.,1.));
#220=DIRECTION('ref_axis',(1.,0.,0.));
#221=CARTESIAN_POINT('',(0.,0.,0.));
#222=CARTESIAN_POINT('Origin',(2.905,0.,0.));
#223=CARTESIAN_POINT('',(3.015,1.34711147906209E-17,-0.0625));
#224=CARTESIAN_POINT('Origin',(2.905,0.,-0.0625));
#225=CARTESIAN_POINT('',(3.015,1.34711147906209E-17,0.0625));
#226=CARTESIAN_POINT('Origin',(2.905,0.,0.0625));
#227=CARTESIAN_POINT('Origin',(-2.905,0.,0.));
#228=CARTESIAN_POINT('',(-2.795,1.34711147906209E-17,-0.0625));
#229=CARTESIAN_POINT('Origin',(-2.905,0.,-0.0625));
#230=CARTESIAN_POINT('',(-2.795,1.34711147906209E-17,0.0625));
#231=CARTESIAN_POINT('Origin',(-2.905,0.,0.0625));
#232=CARTESIAN_POINT('Origin',(0.,0.,-0.0625));
#233=CARTESIAN_POINT('',(2.185,1.095,-0.0625));
#234=CARTESIAN_POINT('',(2.185,-1.095,-0.0625));
#235=CARTESIAN_POINT('Origin',(2.185,0.,-0.0625));
#236=CARTESIAN_POINT('',(-2.185,-1.095,-0.0625));
#237=CARTESIAN_POINT('',(-2.185,-1.095,-0.0625));
#238=CARTESIAN_POINT('',(-2.185,1.095,-0.0625));
#239=CARTESIAN_POINT('Origin',(-2.185,0.,-0.0625));
#240=CARTESIAN_POINT('',(2.185,1.095,-0.0625));
#241=CARTESIAN_POINT('Origin',(-2.185,-1.095,0.));
#242=CARTESIAN_POINT('',(2.185,-1.095,0.0625));
#243=CARTESIAN_POINT('',(2.185,-1.095,0.));
#244=CARTESIAN_POINT('',(-2.185,-1.095,0.0625));
#245=CARTESIAN_POINT('',(-2.185,-1.095,0.0625));
#246=CARTESIAN_POINT('',(-2.185,-1.095,0.));
#247=CARTESIAN_POINT('Origin',(-2.185,0.,0.));
#248=CARTESIAN_POINT('',(-2.185,1.095,0.0625));
#249=CARTESIAN_POINT('Origin',(-2.185,0.,0.0625));
#250=CARTESIAN_POINT('',(-2.185,1.095,0.));
#251=CARTESIAN_POINT('Origin',(2.185,1.095,0.));
#252=CARTESIAN_POINT('',(2.185,1.095,0.0625));
#253=CARTESIAN_POINT('',(2.185,1.095,0.0625));
#254=CARTESIAN_POINT('',(2.185,1.095,0.));
#255=CARTESIAN_POINT('Origin',(2.185,0.,0.));
#256=CARTESIAN_POINT('Origin',(2.185,0.,0.0625));
#257=CARTESIAN_POINT('Origin',(0.,0.,0.0625));
#258=UNCERTAINTY_MEASURE_WITH_UNIT(LENGTH_MEASURE(0.000393700787401575),
#263,'DISTANCE_ACCURACY_VALUE',
'Maximum model space distance between geometric entities at asserted c
onnectivities');
#259=UNCERTAINTY_MEASURE_WITH_UNIT(LENGTH_MEASURE(0.000393700787401575),
#263,'DISTANCE_ACCURACY_VALUE',
'Maximum model space distance between geometric entities at asserted c
onnectivities');
#260=(
GEOMETRIC_REPRESENTATION_CONTEXT(3)
GLOBAL_UNCERTAINTY_ASSIGNED_CONTEXT((#258))
GLOBAL_UNIT_ASSIGNED_CONTEXT((#263,#268,#267))
REPRESENTATION_CONTEXT('','3D')
);
#261=(
GEOMETRIC_REPRESENTATION_CONTEXT(3)
GLOBAL_UNCERTAINTY_ASSIGNED_CONTEXT((#259))
GLOBAL_UNIT_ASSIGNED_CONTEXT((#263,#268,#267))
REPRESENTATION_CONTEXT('','3D')
);
#262=DIMENSIONAL_EXPONENTS(1.,0.,0.,0.,0.,0.,0.);
#263=(
CONVERSION_BASED_UNIT('inch',#266)
LENGTH_UNIT()
NAMED_UNIT(#262)
);
#264=(
LENGTH_UNIT()
NAMED_UNIT(*)
SI_UNIT(.MILLI.,.METRE.)
);
#265=(
LENGTH_UNIT()
NAMED_UNIT(*)
SI_UNIT(.CENTI.,.METRE.)
);
#266=LENGTH_MEASURE_WITH_UNIT(LENGTH_MEASURE(25.4),#264);
#267=(
NAMED_UNIT(*)
SI_UNIT($,.STERADIAN.)
SOLID_ANGLE_UNIT()
);
#268=(
NAMED_UNIT(*)
PLANE_ANGLE_UNIT()
SI_UNIT($,.RADIAN.)
);
#269=SHAPE_DEFINITION_REPRESENTATION(#270,#271);
#270=PRODUCT_DEFINITION_SHAPE('',$,#273);
#271=SHAPE_REPRESENTATION('',(#162),#260);
#272=PRODUCT_DEFINITION_CONTEXT('part definition',#277,'design');
#273=PRODUCT_DEFINITION('21779','21779',#274,#272);
#274=PRODUCT_DEFINITION_FORMATION('A',$,#279);
#275=PRODUCT_RELATED_PRODUCT_CATEGORY('21779','21779',(#279));
#276=APPLICATION_PROTOCOL_DEFINITION('international standard',
'automotive_design',2009,#277);
#277=APPLICATION_CONTEXT(
'Core Data for Automotive Mechanical Design Process');
#278=PRODUCT_CONTEXT('part definition',#277,'mechanical');
#279=PRODUCT('21779','21779','GASKET, 1-1/4" FORM 8 ',(#278));
#280=PRESENTATION_STYLE_ASSIGNMENT((#281));
#281=SURFACE_STYLE_USAGE(.BOTH.,#282);
#282=SURFACE_SIDE_STYLE('',(#283));
#283=SURFACE_STYLE_FILL_AREA(#284);
#284=FILL_AREA_STYLE('',(#285));
#285=FILL_AREA_STYLE_COLOUR('',#286);
#286=COLOUR_RGB('',0.250980392156863,0.250980392156863,0.250980392156863);
ENDSEC;
END-ISO-10303-21;
