ISO-10303-21;
HEADER;
/* Generated by software containing ST-Developer
 * from STEP Tools, Inc. (www.steptools.com) 
 */

FILE_DESCRIPTION(
/* description */ ('FIT,CLOSURE PLATE'),
/* implementation_level */ '2;1');

FILE_NAME(
/* name */ 
'C:\\Wiegmann\\W-Projects\\W-India\\Catalog Projects\\LJWE  (END-PLATE
)\\LJWE STP DXF PDF\\LJWE4.stp',
/* time_stamp */ '2017-08-02T22:23:54+06:00',
/* author */ ('vdas'),
/* organization */ (''),
/* preprocessor_version */ 'ST-DEVELOPER v16.1',
/* originating_system */ 'Autodesk Inventor 2016',
/* authorisation */ '');

FILE_SCHEMA (('AUTOMOTIVE_DESIGN { 1 0 10303 214 3 1 1 }'));
ENDSEC;

DATA;
#10=MECHANICAL_DESIGN_GEOMETRIC_PRESENTATION_REPRESENTATION('',(#267,#273,
#268,#272,#270,#271,#269,#274,#275,#280,#276,#277,#278,#279,#281,#282),
#496);
#11=SHAPE_REPRESENTATION_RELATIONSHIP('SRR','None',#508,#12);
#12=ADVANCED_BREP_SHAPE_REPRESENTATION('',(#13),#495);
#13=MANIFOLD_SOLID_BREP('Solid1',#298);
#14=PLANE('',#318);
#15=PLANE('',#322);
#16=PLANE('',#327);
#17=PLANE('',#330);
#18=PLANE('',#331);
#19=PLANE('',#332);
#20=LINE('',#448,#36);
#21=LINE('',#451,#37);
#22=LINE('',#454,#38);
#23=LINE('',#458,#39);
#24=LINE('',#462,#40);
#25=LINE('',#465,#41);
#26=LINE('',#468,#42);
#27=LINE('',#469,#43);
#28=LINE('',#473,#44);
#29=LINE('',#478,#45);
#30=LINE('',#479,#46);
#31=LINE('',#482,#47);
#32=LINE('',#483,#48);
#33=LINE('',#487,#49);
#34=LINE('',#489,#50);
#35=LINE('',#491,#51);
#36=VECTOR('',#369,0.125);
#37=VECTOR('',#372,0.125);
#38=VECTOR('',#375,4.625);
#39=VECTOR('',#378,4.625);
#40=VECTOR('',#381,4.625);
#41=VECTOR('',#384,4.625);
#42=VECTOR('',#387,4.625);
#43=VECTOR('',#388,0.125);
#44=VECTOR('',#393,0.125);
#45=VECTOR('',#398,0.125);
#46=VECTOR('',#399,0.125);
#47=VECTOR('',#402,0.125);
#48=VECTOR('',#403,4.625);
#49=VECTOR('',#408,0.125);
#50=VECTOR('',#411,4.625);
#51=VECTOR('',#414,4.625);
#52=FACE_BOUND('',#83,.T.);
#53=FACE_BOUND('',#85,.T.);
#54=FACE_BOUND('',#87,.T.);
#55=FACE_BOUND('',#89,.T.);
#56=FACE_BOUND('',#91,.T.);
#57=FACE_BOUND('',#94,.T.);
#58=FACE_BOUND('',#95,.T.);
#59=FACE_BOUND('',#96,.T.);
#60=FACE_BOUND('',#97,.T.);
#61=FACE_BOUND('',#98,.T.);
#62=FACE_BOUND('',#107,.T.);
#63=FACE_BOUND('',#108,.T.);
#64=FACE_BOUND('',#109,.T.);
#65=FACE_BOUND('',#110,.T.);
#66=FACE_BOUND('',#111,.T.);
#67=FACE_OUTER_BOUND('',#82,.T.);
#68=FACE_OUTER_BOUND('',#84,.T.);
#69=FACE_OUTER_BOUND('',#86,.T.);
#70=FACE_OUTER_BOUND('',#88,.T.);
#71=FACE_OUTER_BOUND('',#90,.T.);
#72=FACE_OUTER_BOUND('',#92,.T.);
#73=FACE_OUTER_BOUND('',#93,.T.);
#74=FACE_OUTER_BOUND('',#99,.T.);
#75=FACE_OUTER_BOUND('',#100,.T.);
#76=FACE_OUTER_BOUND('',#101,.T.);
#77=FACE_OUTER_BOUND('',#102,.T.);
#78=FACE_OUTER_BOUND('',#103,.T.);
#79=FACE_OUTER_BOUND('',#104,.T.);
#80=FACE_OUTER_BOUND('',#105,.T.);
#81=FACE_OUTER_BOUND('',#106,.T.);
#82=EDGE_LOOP('',(#190));
#83=EDGE_LOOP('',(#191));
#84=EDGE_LOOP('',(#192));
#85=EDGE_LOOP('',(#193));
#86=EDGE_LOOP('',(#194));
#87=EDGE_LOOP('',(#195));
#88=EDGE_LOOP('',(#196));
#89=EDGE_LOOP('',(#197));
#90=EDGE_LOOP('',(#198));
#91=EDGE_LOOP('',(#199));
#92=EDGE_LOOP('',(#200,#201,#202,#203));
#93=EDGE_LOOP('',(#204,#205,#206,#207,#208,#209,#210,#211));
#94=EDGE_LOOP('',(#212));
#95=EDGE_LOOP('',(#213));
#96=EDGE_LOOP('',(#214));
#97=EDGE_LOOP('',(#215));
#98=EDGE_LOOP('',(#216));
#99=EDGE_LOOP('',(#217,#218,#219,#220));
#100=EDGE_LOOP('',(#221,#222,#223,#224));
#101=EDGE_LOOP('',(#225,#226,#227,#228));
#102=EDGE_LOOP('',(#229,#230,#231,#232));
#103=EDGE_LOOP('',(#233,#234,#235,#236));
#104=EDGE_LOOP('',(#237,#238,#239,#240));
#105=EDGE_LOOP('',(#241,#242,#243,#244));
#106=EDGE_LOOP('',(#245,#246,#247,#248,#249,#250,#251,#252));
#107=EDGE_LOOP('',(#253));
#108=EDGE_LOOP('',(#254));
#109=EDGE_LOOP('',(#255));
#110=EDGE_LOOP('',(#256));
#111=EDGE_LOOP('',(#257));
#112=CIRCLE('',#301,0.1405);
#113=CIRCLE('',#302,0.1405);
#114=CIRCLE('',#304,0.1405);
#115=CIRCLE('',#305,0.1405);
#116=CIRCLE('',#307,0.1405);
#117=CIRCLE('',#308,0.1405);
#118=CIRCLE('',#310,0.1405);
#119=CIRCLE('',#311,0.1405);
#120=CIRCLE('',#313,0.1405);
#121=CIRCLE('',#314,0.1405);
#122=CIRCLE('',#316,0.375);
#123=CIRCLE('',#317,0.375);
#124=CIRCLE('',#319,0.375);
#125=CIRCLE('',#320,0.375);
#126=CIRCLE('',#321,0.375);
#127=CIRCLE('',#324,0.375);
#128=CIRCLE('',#326,0.375);
#129=CIRCLE('',#329,0.375);
#130=VERTEX_POINT('',#419);
#131=VERTEX_POINT('',#421);
#132=VERTEX_POINT('',#424);
#133=VERTEX_POINT('',#426);
#134=VERTEX_POINT('',#429);
#135=VERTEX_POINT('',#431);
#136=VERTEX_POINT('',#434);
#137=VERTEX_POINT('',#436);
#138=VERTEX_POINT('',#439);
#139=VERTEX_POINT('',#441);
#140=VERTEX_POINT('',#444);
#141=VERTEX_POINT('',#445);
#142=VERTEX_POINT('',#447);
#143=VERTEX_POINT('',#449);
#144=VERTEX_POINT('',#453);
#145=VERTEX_POINT('',#455);
#146=VERTEX_POINT('',#457);
#147=VERTEX_POINT('',#459);
#148=VERTEX_POINT('',#461);
#149=VERTEX_POINT('',#463);
#150=VERTEX_POINT('',#467);
#151=VERTEX_POINT('',#471);
#152=VERTEX_POINT('',#475);
#153=VERTEX_POINT('',#476);
#154=VERTEX_POINT('',#481);
#155=VERTEX_POINT('',#485);
#156=EDGE_CURVE('',#130,#130,#112,.T.);
#157=EDGE_CURVE('',#131,#131,#113,.T.);
#158=EDGE_CURVE('',#132,#132,#114,.T.);
#159=EDGE_CURVE('',#133,#133,#115,.T.);
#160=EDGE_CURVE('',#134,#134,#116,.T.);
#161=EDGE_CURVE('',#135,#135,#117,.T.);
#162=EDGE_CURVE('',#136,#136,#118,.T.);
#163=EDGE_CURVE('',#137,#137,#119,.T.);
#164=EDGE_CURVE('',#138,#138,#120,.T.);
#165=EDGE_CURVE('',#139,#139,#121,.T.);
#166=EDGE_CURVE('',#140,#141,#122,.T.);
#167=EDGE_CURVE('',#141,#142,#20,.T.);
#168=EDGE_CURVE('',#142,#143,#123,.T.);
#169=EDGE_CURVE('',#143,#140,#21,.T.);
#170=EDGE_CURVE('',#142,#144,#22,.T.);
#171=EDGE_CURVE('',#145,#144,#124,.T.);
#172=EDGE_CURVE('',#145,#146,#23,.T.);
#173=EDGE_CURVE('',#147,#146,#125,.T.);
#174=EDGE_CURVE('',#147,#148,#24,.T.);
#175=EDGE_CURVE('',#149,#148,#126,.T.);
#176=EDGE_CURVE('',#149,#143,#25,.T.);
#177=EDGE_CURVE('',#141,#150,#26,.T.);
#178=EDGE_CURVE('',#144,#150,#27,.T.);
#179=EDGE_CURVE('',#150,#151,#127,.T.);
#180=EDGE_CURVE('',#151,#145,#28,.T.);
#181=EDGE_CURVE('',#152,#153,#128,.T.);
#182=EDGE_CURVE('',#153,#149,#29,.T.);
#183=EDGE_CURVE('',#148,#152,#30,.T.);
#184=EDGE_CURVE('',#154,#147,#31,.T.);
#185=EDGE_CURVE('',#154,#152,#32,.T.);
#186=EDGE_CURVE('',#155,#154,#129,.T.);
#187=EDGE_CURVE('',#146,#155,#33,.T.);
#188=EDGE_CURVE('',#153,#140,#34,.T.);
#189=EDGE_CURVE('',#151,#155,#35,.T.);
#190=ORIENTED_EDGE('',*,*,#156,.F.);
#191=ORIENTED_EDGE('',*,*,#157,.F.);
#192=ORIENTED_EDGE('',*,*,#158,.F.);
#193=ORIENTED_EDGE('',*,*,#159,.F.);
#194=ORIENTED_EDGE('',*,*,#160,.F.);
#195=ORIENTED_EDGE('',*,*,#161,.F.);
#196=ORIENTED_EDGE('',*,*,#162,.F.);
#197=ORIENTED_EDGE('',*,*,#163,.F.);
#198=ORIENTED_EDGE('',*,*,#164,.F.);
#199=ORIENTED_EDGE('',*,*,#165,.F.);
#200=ORIENTED_EDGE('',*,*,#166,.T.);
#201=ORIENTED_EDGE('',*,*,#167,.T.);
#202=ORIENTED_EDGE('',*,*,#168,.T.);
#203=ORIENTED_EDGE('',*,*,#169,.T.);
#204=ORIENTED_EDGE('',*,*,#168,.F.);
#205=ORIENTED_EDGE('',*,*,#170,.T.);
#206=ORIENTED_EDGE('',*,*,#171,.F.);
#207=ORIENTED_EDGE('',*,*,#172,.T.);
#208=ORIENTED_EDGE('',*,*,#173,.F.);
#209=ORIENTED_EDGE('',*,*,#174,.T.);
#210=ORIENTED_EDGE('',*,*,#175,.F.);
#211=ORIENTED_EDGE('',*,*,#176,.T.);
#212=ORIENTED_EDGE('',*,*,#156,.T.);
#213=ORIENTED_EDGE('',*,*,#158,.T.);
#214=ORIENTED_EDGE('',*,*,#160,.T.);
#215=ORIENTED_EDGE('',*,*,#162,.T.);
#216=ORIENTED_EDGE('',*,*,#164,.T.);
#217=ORIENTED_EDGE('',*,*,#167,.F.);
#218=ORIENTED_EDGE('',*,*,#177,.T.);
#219=ORIENTED_EDGE('',*,*,#178,.F.);
#220=ORIENTED_EDGE('',*,*,#170,.F.);
#221=ORIENTED_EDGE('',*,*,#179,.T.);
#222=ORIENTED_EDGE('',*,*,#180,.T.);
#223=ORIENTED_EDGE('',*,*,#171,.T.);
#224=ORIENTED_EDGE('',*,*,#178,.T.);
#225=ORIENTED_EDGE('',*,*,#181,.T.);
#226=ORIENTED_EDGE('',*,*,#182,.T.);
#227=ORIENTED_EDGE('',*,*,#175,.T.);
#228=ORIENTED_EDGE('',*,*,#183,.T.);
#229=ORIENTED_EDGE('',*,*,#183,.F.);
#230=ORIENTED_EDGE('',*,*,#174,.F.);
#231=ORIENTED_EDGE('',*,*,#184,.F.);
#232=ORIENTED_EDGE('',*,*,#185,.T.);
#233=ORIENTED_EDGE('',*,*,#186,.T.);
#234=ORIENTED_EDGE('',*,*,#184,.T.);
#235=ORIENTED_EDGE('',*,*,#173,.T.);
#236=ORIENTED_EDGE('',*,*,#187,.T.);
#237=ORIENTED_EDGE('',*,*,#169,.F.);
#238=ORIENTED_EDGE('',*,*,#176,.F.);
#239=ORIENTED_EDGE('',*,*,#182,.F.);
#240=ORIENTED_EDGE('',*,*,#188,.T.);
#241=ORIENTED_EDGE('',*,*,#180,.F.);
#242=ORIENTED_EDGE('',*,*,#189,.T.);
#243=ORIENTED_EDGE('',*,*,#187,.F.);
#244=ORIENTED_EDGE('',*,*,#172,.F.);
#245=ORIENTED_EDGE('',*,*,#166,.F.);
#246=ORIENTED_EDGE('',*,*,#188,.F.);
#247=ORIENTED_EDGE('',*,*,#181,.F.);
#248=ORIENTED_EDGE('',*,*,#185,.F.);
#249=ORIENTED_EDGE('',*,*,#186,.F.);
#250=ORIENTED_EDGE('',*,*,#189,.F.);
#251=ORIENTED_EDGE('',*,*,#179,.F.);
#252=ORIENTED_EDGE('',*,*,#177,.F.);
#253=ORIENTED_EDGE('',*,*,#157,.T.);
#254=ORIENTED_EDGE('',*,*,#159,.T.);
#255=ORIENTED_EDGE('',*,*,#161,.T.);
#256=ORIENTED_EDGE('',*,*,#163,.T.);
#257=ORIENTED_EDGE('',*,*,#165,.T.);
#258=CYLINDRICAL_SURFACE('',#300,0.1405);
#259=CYLINDRICAL_SURFACE('',#303,0.1405);
#260=CYLINDRICAL_SURFACE('',#306,0.1405);
#261=CYLINDRICAL_SURFACE('',#309,0.1405);
#262=CYLINDRICAL_SURFACE('',#312,0.1405);
#263=CYLINDRICAL_SURFACE('',#315,0.375);
#264=CYLINDRICAL_SURFACE('',#323,0.375);
#265=CYLINDRICAL_SURFACE('',#325,0.375);
#266=CYLINDRICAL_SURFACE('',#328,0.375);
#267=STYLED_ITEM('',(#517),#283);
#268=STYLED_ITEM('',(#517),#284);
#269=STYLED_ITEM('',(#517),#285);
#270=STYLED_ITEM('',(#517),#286);
#271=STYLED_ITEM('',(#517),#287);
#272=STYLED_ITEM('',(#517),#288);
#273=STYLED_ITEM('',(#517),#289);
#274=STYLED_ITEM('',(#517),#290);
#275=STYLED_ITEM('',(#517),#291);
#276=STYLED_ITEM('',(#517),#292);
#277=STYLED_ITEM('',(#517),#293);
#278=STYLED_ITEM('',(#517),#294);
#279=STYLED_ITEM('',(#517),#295);
#280=STYLED_ITEM('',(#517),#296);
#281=STYLED_ITEM('',(#517),#297);
#282=STYLED_ITEM('',(#517),#13);
#283=ADVANCED_FACE('',(#67,#52),#258,.F.);
#284=ADVANCED_FACE('',(#68,#53),#259,.F.);
#285=ADVANCED_FACE('',(#69,#54),#260,.F.);
#286=ADVANCED_FACE('',(#70,#55),#261,.F.);
#287=ADVANCED_FACE('',(#71,#56),#262,.F.);
#288=ADVANCED_FACE('',(#72),#263,.T.);
#289=ADVANCED_FACE('',(#73,#57,#58,#59,#60,#61),#14,.F.);
#290=ADVANCED_FACE('',(#74),#15,.T.);
#291=ADVANCED_FACE('',(#75),#264,.T.);
#292=ADVANCED_FACE('',(#76),#265,.T.);
#293=ADVANCED_FACE('',(#77),#16,.T.);
#294=ADVANCED_FACE('',(#78),#266,.T.);
#295=ADVANCED_FACE('',(#79),#17,.T.);
#296=ADVANCED_FACE('',(#80),#18,.T.);
#297=ADVANCED_FACE('',(#81,#62,#63,#64,#65,#66),#19,.T.);
#298=CLOSED_SHELL('',(#283,#284,#285,#286,#287,#288,#289,#290,#291,#292,
#293,#294,#295,#296,#297));
#299=AXIS2_PLACEMENT_3D('placement',#417,#333,#334);
#300=AXIS2_PLACEMENT_3D('',#418,#335,#336);
#301=AXIS2_PLACEMENT_3D('',#420,#337,#338);
#302=AXIS2_PLACEMENT_3D('',#422,#339,#340);
#303=AXIS2_PLACEMENT_3D('',#423,#341,#342);
#304=AXIS2_PLACEMENT_3D('',#425,#343,#344);
#305=AXIS2_PLACEMENT_3D('',#427,#345,#346);
#306=AXIS2_PLACEMENT_3D('',#428,#347,#348);
#307=AXIS2_PLACEMENT_3D('',#430,#349,#350);
#308=AXIS2_PLACEMENT_3D('',#432,#351,#352);
#309=AXIS2_PLACEMENT_3D('',#433,#353,#354);
#310=AXIS2_PLACEMENT_3D('',#435,#355,#356);
#311=AXIS2_PLACEMENT_3D('',#437,#357,#358);
#312=AXIS2_PLACEMENT_3D('',#438,#359,#360);
#313=AXIS2_PLACEMENT_3D('',#440,#361,#362);
#314=AXIS2_PLACEMENT_3D('',#442,#363,#364);
#315=AXIS2_PLACEMENT_3D('',#443,#365,#366);
#316=AXIS2_PLACEMENT_3D('',#446,#367,#368);
#317=AXIS2_PLACEMENT_3D('',#450,#370,#371);
#318=AXIS2_PLACEMENT_3D('',#452,#373,#374);
#319=AXIS2_PLACEMENT_3D('',#456,#376,#377);
#320=AXIS2_PLACEMENT_3D('',#460,#379,#380);
#321=AXIS2_PLACEMENT_3D('',#464,#382,#383);
#322=AXIS2_PLACEMENT_3D('',#466,#385,#386);
#323=AXIS2_PLACEMENT_3D('',#470,#389,#390);
#324=AXIS2_PLACEMENT_3D('',#472,#391,#392);
#325=AXIS2_PLACEMENT_3D('',#474,#394,#395);
#326=AXIS2_PLACEMENT_3D('',#477,#396,#397);
#327=AXIS2_PLACEMENT_3D('',#480,#400,#401);
#328=AXIS2_PLACEMENT_3D('',#484,#404,#405);
#329=AXIS2_PLACEMENT_3D('',#486,#406,#407);
#330=AXIS2_PLACEMENT_3D('',#488,#409,#410);
#331=AXIS2_PLACEMENT_3D('',#490,#412,#413);
#332=AXIS2_PLACEMENT_3D('',#492,#415,#416);
#333=DIRECTION('axis',(0.,0.,1.));
#334=DIRECTION('refdir',(1.,0.,0.));
#335=DIRECTION('center_axis',(0.,0.,-1.));
#336=DIRECTION('ref_axis',(-1.,0.,0.));
#337=DIRECTION('center_axis',(0.,0.,1.));
#338=DIRECTION('ref_axis',(-1.,0.,0.));
#339=DIRECTION('center_axis',(0.,0.,-1.));
#340=DIRECTION('ref_axis',(-1.,0.,0.));
#341=DIRECTION('center_axis',(0.,0.,-1.));
#342=DIRECTION('ref_axis',(-1.,0.,0.));
#343=DIRECTION('center_axis',(0.,0.,1.));
#344=DIRECTION('ref_axis',(-1.,0.,0.));
#345=DIRECTION('center_axis',(0.,0.,-1.));
#346=DIRECTION('ref_axis',(-1.,0.,0.));
#347=DIRECTION('center_axis',(0.,0.,-1.));
#348=DIRECTION('ref_axis',(-1.,0.,0.));
#349=DIRECTION('center_axis',(0.,0.,1.));
#350=DIRECTION('ref_axis',(-1.,0.,0.));
#351=DIRECTION('center_axis',(0.,0.,-1.));
#352=DIRECTION('ref_axis',(-1.,0.,0.));
#353=DIRECTION('center_axis',(0.,0.,-1.));
#354=DIRECTION('ref_axis',(-1.,0.,0.));
#355=DIRECTION('center_axis',(0.,0.,1.));
#356=DIRECTION('ref_axis',(-1.,0.,0.));
#357=DIRECTION('center_axis',(0.,0.,-1.));
#358=DIRECTION('ref_axis',(-1.,0.,0.));
#359=DIRECTION('center_axis',(0.,0.,-1.));
#360=DIRECTION('ref_axis',(-1.,0.,0.));
#361=DIRECTION('center_axis',(0.,0.,1.));
#362=DIRECTION('ref_axis',(-1.,0.,0.));
#363=DIRECTION('center_axis',(0.,0.,-1.));
#364=DIRECTION('ref_axis',(-1.,0.,0.));
#365=DIRECTION('center_axis',(0.,0.,1.));
#366=DIRECTION('ref_axis',(0.707106781186547,-0.707106781186548,0.));
#367=DIRECTION('center_axis',(0.,0.,-1.));
#368=DIRECTION('ref_axis',(0.707106781186547,-0.707106781186548,0.));
#369=DIRECTION('',(0.,0.,-1.));
#370=DIRECTION('center_axis',(0.,0.,1.));
#371=DIRECTION('ref_axis',(0.707106781186547,-0.707106781186548,0.));
#372=DIRECTION('',(0.,0.,1.));
#373=DIRECTION('center_axis',(0.,0.,1.));
#374=DIRECTION('ref_axis',(1.,0.,0.));
#375=DIRECTION('',(-1.,-1.30112202116847E-16,0.));
#376=DIRECTION('center_axis',(0.,0.,1.));
#377=DIRECTION('ref_axis',(-0.707106781186547,-0.707106781186547,0.));
#378=DIRECTION('',(-2.60224404233694E-16,1.,0.));
#379=DIRECTION('center_axis',(0.,0.,1.));
#380=DIRECTION('ref_axis',(-0.707106781186548,0.707106781186548,0.));
#381=DIRECTION('',(1.,0.,0.));
#382=DIRECTION('center_axis',(0.,0.,1.));
#383=DIRECTION('ref_axis',(0.707106781186548,0.707106781186548,0.));
#384=DIRECTION('',(1.30112202116847E-16,-1.,0.));
#385=DIRECTION('center_axis',(1.30112202116847E-16,-1.,0.));
#386=DIRECTION('ref_axis',(0.,0.,-1.));
#387=DIRECTION('',(-1.,-1.30112202116847E-16,0.));
#388=DIRECTION('',(0.,0.,1.));
#389=DIRECTION('center_axis',(0.,0.,1.));
#390=DIRECTION('ref_axis',(-0.707106781186547,-0.707106781186547,0.));
#391=DIRECTION('center_axis',(0.,0.,-1.));
#392=DIRECTION('ref_axis',(-0.707106781186547,-0.707106781186547,0.));
#393=DIRECTION('',(0.,0.,-1.));
#394=DIRECTION('center_axis',(0.,0.,1.));
#395=DIRECTION('ref_axis',(0.707106781186548,0.707106781186548,0.));
#396=DIRECTION('center_axis',(0.,0.,-1.));
#397=DIRECTION('ref_axis',(0.707106781186548,0.707106781186548,0.));
#398=DIRECTION('',(0.,0.,-1.));
#399=DIRECTION('',(0.,0.,1.));
#400=DIRECTION('center_axis',(0.,1.,0.));
#401=DIRECTION('ref_axis',(0.,0.,1.));
#402=DIRECTION('',(0.,0.,-1.));
#403=DIRECTION('',(1.,0.,0.));
#404=DIRECTION('center_axis',(0.,0.,1.));
#405=DIRECTION('ref_axis',(-0.707106781186548,0.707106781186548,0.));
#406=DIRECTION('center_axis',(0.,0.,-1.));
#407=DIRECTION('ref_axis',(-0.707106781186548,0.707106781186548,0.));
#408=DIRECTION('',(0.,0.,1.));
#409=DIRECTION('center_axis',(1.,1.30112202116847E-16,0.));
#410=DIRECTION('ref_axis',(0.,0.,-1.));
#411=DIRECTION('',(1.30112202116847E-16,-1.,0.));
#412=DIRECTION('center_axis',(-1.,-2.60224404233694E-16,0.));
#413=DIRECTION('ref_axis',(0.,0.,1.));
#414=DIRECTION('',(-2.60224404233694E-16,1.,0.));
#415=DIRECTION('center_axis',(0.,0.,1.));
#416=DIRECTION('ref_axis',(1.,0.,0.));
#417=CARTESIAN_POINT('',(0.,0.,0.));
#418=CARTESIAN_POINT('Origin',(-2.3125,-2.3125,0.125));
#419=CARTESIAN_POINT('',(-2.172,-2.3125,0.));
#420=CARTESIAN_POINT('Origin',(-2.3125,-2.3125,0.));
#421=CARTESIAN_POINT('',(-2.172,-2.3125,0.125));
#422=CARTESIAN_POINT('Origin',(-2.3125,-2.3125,0.125));
#423=CARTESIAN_POINT('Origin',(2.62257407391769E-16,2.3125,0.125));
#424=CARTESIAN_POINT('',(0.1405,2.3125,0.));
#425=CARTESIAN_POINT('Origin',(2.62257407391769E-16,2.3125,0.));
#426=CARTESIAN_POINT('',(0.1405,2.3125,0.125));
#427=CARTESIAN_POINT('Origin',(2.62257407391769E-16,2.3125,0.125));
#428=CARTESIAN_POINT('Origin',(-2.3125,2.3125,0.125));
#429=CARTESIAN_POINT('',(-2.172,2.3125,0.));
#430=CARTESIAN_POINT('Origin',(-2.3125,2.3125,0.));
#431=CARTESIAN_POINT('',(-2.172,2.3125,0.125));
#432=CARTESIAN_POINT('Origin',(-2.3125,2.3125,0.125));
#433=CARTESIAN_POINT('Origin',(2.3125,2.3125,0.125));
#434=CARTESIAN_POINT('',(2.453,2.3125,0.));
#435=CARTESIAN_POINT('Origin',(2.3125,2.3125,0.));
#436=CARTESIAN_POINT('',(2.453,2.3125,0.125));
#437=CARTESIAN_POINT('Origin',(2.3125,2.3125,0.125));
#438=CARTESIAN_POINT('Origin',(2.3125,-2.3125,0.125));
#439=CARTESIAN_POINT('',(2.453,-2.3125,0.));
#440=CARTESIAN_POINT('Origin',(2.3125,-2.3125,0.));
#441=CARTESIAN_POINT('',(2.453,-2.3125,0.125));
#442=CARTESIAN_POINT('Origin',(2.3125,-2.3125,0.125));
#443=CARTESIAN_POINT('Origin',(2.3125,-2.3125,0.));
#444=CARTESIAN_POINT('',(2.6875,-2.3125,0.125));
#445=CARTESIAN_POINT('',(2.3125,-2.6875,0.125));
#446=CARTESIAN_POINT('Origin',(2.3125,-2.3125,0.125));
#447=CARTESIAN_POINT('',(2.3125,-2.6875,0.));
#448=CARTESIAN_POINT('',(2.3125,-2.6875,0.));
#449=CARTESIAN_POINT('',(2.6875,-2.3125,0.));
#450=CARTESIAN_POINT('Origin',(2.3125,-2.3125,0.));
#451=CARTESIAN_POINT('',(2.6875,-2.3125,0.));
#452=CARTESIAN_POINT('Origin',(6.99353086378051E-16,3.97359708169347E-17,
0.));
#453=CARTESIAN_POINT('',(-2.3125,-2.6875,0.));
#454=CARTESIAN_POINT('',(2.6875,-2.6875,0.));
#455=CARTESIAN_POINT('',(-2.6875,-2.3125,0.));
#456=CARTESIAN_POINT('Origin',(-2.3125,-2.3125,0.));
#457=CARTESIAN_POINT('',(-2.6875,2.3125,0.));
#458=CARTESIAN_POINT('',(-2.6875,-2.6875,0.));
#459=CARTESIAN_POINT('',(-2.3125,2.6875,0.));
#460=CARTESIAN_POINT('Origin',(-2.3125,2.3125,0.));
#461=CARTESIAN_POINT('',(2.3125,2.6875,0.));
#462=CARTESIAN_POINT('',(-2.6875,2.6875,0.));
#463=CARTESIAN_POINT('',(2.6875,2.3125,0.));
#464=CARTESIAN_POINT('Origin',(2.3125,2.3125,0.));
#465=CARTESIAN_POINT('',(2.6875,2.6875,0.));
#466=CARTESIAN_POINT('Origin',(2.6875,-2.6875,0.));
#467=CARTESIAN_POINT('',(-2.3125,-2.6875,0.125));
#468=CARTESIAN_POINT('',(2.6875,-2.6875,0.125));
#469=CARTESIAN_POINT('',(-2.3125,-2.6875,0.));
#470=CARTESIAN_POINT('Origin',(-2.3125,-2.3125,0.));
#471=CARTESIAN_POINT('',(-2.6875,-2.3125,0.125));
#472=CARTESIAN_POINT('Origin',(-2.3125,-2.3125,0.125));
#473=CARTESIAN_POINT('',(-2.6875,-2.3125,0.));
#474=CARTESIAN_POINT('Origin',(2.3125,2.3125,0.));
#475=CARTESIAN_POINT('',(2.3125,2.6875,0.125));
#476=CARTESIAN_POINT('',(2.6875,2.3125,0.125));
#477=CARTESIAN_POINT('Origin',(2.3125,2.3125,0.125));
#478=CARTESIAN_POINT('',(2.6875,2.3125,0.));
#479=CARTESIAN_POINT('',(2.3125,2.6875,0.));
#480=CARTESIAN_POINT('Origin',(-2.6875,2.6875,0.));
#481=CARTESIAN_POINT('',(-2.3125,2.6875,0.125));
#482=CARTESIAN_POINT('',(-2.3125,2.6875,0.));
#483=CARTESIAN_POINT('',(-2.6875,2.6875,0.125));
#484=CARTESIAN_POINT('Origin',(-2.3125,2.3125,0.));
#485=CARTESIAN_POINT('',(-2.6875,2.3125,0.125));
#486=CARTESIAN_POINT('Origin',(-2.3125,2.3125,0.125));
#487=CARTESIAN_POINT('',(-2.6875,2.3125,0.));
#488=CARTESIAN_POINT('Origin',(2.6875,2.6875,0.));
#489=CARTESIAN_POINT('',(2.6875,2.6875,0.125));
#490=CARTESIAN_POINT('Origin',(-2.6875,-2.6875,0.));
#491=CARTESIAN_POINT('',(-2.6875,-2.6875,0.125));
#492=CARTESIAN_POINT('Origin',(6.99353086378051E-16,3.97359708169347E-17,
0.125));
#493=UNCERTAINTY_MEASURE_WITH_UNIT(LENGTH_MEASURE(0.000393700787401575),
#497,'DISTANCE_ACCURACY_VALUE',
'Maximum model space distance between geometric entities at asserted c
onnectivities');
#494=UNCERTAINTY_MEASURE_WITH_UNIT(LENGTH_MEASURE(1.E-6),#498,
'DISTANCE_ACCURACY_VALUE',
'Maximum model space distance between geometric entities at asserted c
onnectivities');
#495=(
GEOMETRIC_REPRESENTATION_CONTEXT(3)
GLOBAL_UNCERTAINTY_ASSIGNED_CONTEXT((#493))
GLOBAL_UNIT_ASSIGNED_CONTEXT((#497,#503,#500))
REPRESENTATION_CONTEXT('','3D')
);
#496=(
GEOMETRIC_REPRESENTATION_CONTEXT(3)
GLOBAL_UNCERTAINTY_ASSIGNED_CONTEXT((#494))
GLOBAL_UNIT_ASSIGNED_CONTEXT((#498,#503,#500))
REPRESENTATION_CONTEXT('','3D')
);
#497=(
CONVERSION_BASED_UNIT('__CONSTANT UNIT inch',#499)
LENGTH_UNIT()
NAMED_UNIT(#502)
);
#498=(
LENGTH_UNIT()
NAMED_UNIT(*)
SI_UNIT(.MILLI.,.METRE.)
);
#499=LENGTH_MEASURE_WITH_UNIT(LENGTH_MEASURE(25.4),#498);
#500=(
NAMED_UNIT(*)
SI_UNIT($,.STERADIAN.)
SOLID_ANGLE_UNIT()
);
#501=DIMENSIONAL_EXPONENTS(0.,0.,0.,0.,0.,0.,0.);
#502=DIMENSIONAL_EXPONENTS(1.,0.,0.,0.,0.,0.,0.);
#503=(
CONVERSION_BASED_UNIT('degree',#505)
NAMED_UNIT(#501)
PLANE_ANGLE_UNIT()
);
#504=(
NAMED_UNIT(*)
PLANE_ANGLE_UNIT()
SI_UNIT($,.RADIAN.)
);
#505=PLANE_ANGLE_MEASURE_WITH_UNIT(PLANE_ANGLE_MEASURE(0.01745329252),#504);
#506=SHAPE_DEFINITION_REPRESENTATION(#507,#508);
#507=PRODUCT_DEFINITION_SHAPE('',$,#510);
#508=SHAPE_REPRESENTATION('',(#299),#495);
#509=PRODUCT_DEFINITION_CONTEXT('part definition',#514,'design');
#510=PRODUCT_DEFINITION('LJWE4','LJWE4',#511,#509);
#511=PRODUCT_DEFINITION_FORMATION('',$,#516);
#512=PRODUCT_RELATED_PRODUCT_CATEGORY('LJWE4','LJWE4',(#516));
#513=APPLICATION_PROTOCOL_DEFINITION('international standard',
'automotive_design',2009,#514);
#514=APPLICATION_CONTEXT(
'Core Data for Automotive Mechanical Design Process');
#515=PRODUCT_CONTEXT('part definition',#514,'mechanical');
#516=PRODUCT('LJWE4','LJWE4',$,(#515));
#517=PRESENTATION_STYLE_ASSIGNMENT((#518));
#518=SURFACE_STYLE_USAGE(.BOTH.,#519);
#519=SURFACE_SIDE_STYLE('',(#520));
#520=SURFACE_STYLE_FILL_AREA(#521);
#521=FILL_AREA_STYLE('',(#522));
#522=FILL_AREA_STYLE_COLOUR('',#523);
#523=COLOUR_RGB('',0.63921568627451,0.63921568627451,0.686274509803922);
ENDSEC;
END-ISO-10303-21;
