ISO-10303-21;
HEADER;
/* Generated by software containing ST-Developer
 * from STEP Tools, Inc. (www.steptools.com) 
 */

FILE_DESCRIPTION(
/* description */ ('PERFORATED PANEL,ULTIMATE,CS,14.2 X 10.2'),
/* implementation_level */ '2;1');

FILE_NAME(
/* name */ 
'C:\\Wiegmann\\W-Projects\\W-India\\Catalog Projects\\NP_CPP\\NP_CPP D
XF, STP & PDF\\NP1612CPP.stp',
/* time_stamp */ '2017-02-20T15:02:38+06:00',
/* author */ ('rsundaram2'),
/* organization */ (''),
/* preprocessor_version */ 'ST-DEVELOPER v16.1',
/* originating_system */ 'Autodesk Inventor 2016',
/* authorisation */ '');

FILE_SCHEMA (('AUTOMOTIVE_DESIGN { 1 0 10303 214 3 1 1 }'));
ENDSEC;

DATA;
#10=MECHANICAL_DESIGN_GEOMETRIC_PRESENTATION_REPRESENTATION('',(#13),#575);
#11=SHAPE_REPRESENTATION_RELATIONSHIP('SRR','None',#587,#12);
#12=ADVANCED_BREP_SHAPE_REPRESENTATION('',(#14),#574);
#13=STYLED_ITEM('',(#596),#14);
#14=MANIFOLD_SOLID_BREP('Solid1',#351);
#15=LINE('',#525,#39);
#16=LINE('',#527,#40);
#17=LINE('',#529,#41);
#18=LINE('',#530,#42);
#19=LINE('',#533,#43);
#20=LINE('',#535,#44);
#21=LINE('',#536,#45);
#22=LINE('',#539,#46);
#23=LINE('',#541,#47);
#24=LINE('',#543,#48);
#25=LINE('',#545,#49);
#26=LINE('',#547,#50);
#27=LINE('',#548,#51);
#28=LINE('',#551,#52);
#29=LINE('',#552,#53);
#30=LINE('',#555,#54);
#31=LINE('',#556,#55);
#32=LINE('',#559,#56);
#33=LINE('',#560,#57);
#34=LINE('',#563,#58);
#35=LINE('',#564,#59);
#36=LINE('',#567,#60);
#37=LINE('',#568,#61);
#38=LINE('',#570,#62);
#39=VECTOR('',#439,0.707106781186548);
#40=VECTOR('',#440,0.09375);
#41=VECTOR('',#441,0.707106781186548);
#42=VECTOR('',#442,0.09375);
#43=VECTOR('',#445,13.2);
#44=VECTOR('',#446,0.09375);
#45=VECTOR('',#447,13.2);
#46=VECTOR('',#450,9.2);
#47=VECTOR('',#451,0.707106781186548);
#48=VECTOR('',#452,13.2);
#49=VECTOR('',#453,0.707106781186548);
#50=VECTOR('',#454,9.2);
#51=VECTOR('',#455,0.707106781186548);
#52=VECTOR('',#458,0.707106781186548);
#53=VECTOR('',#459,0.09375);
#54=VECTOR('',#462,0.09375);
#55=VECTOR('',#463,9.2);
#56=VECTOR('',#466,0.707106781186548);
#57=VECTOR('',#467,0.09375);
#58=VECTOR('',#470,0.09375);
#59=VECTOR('',#471,13.2);
#60=VECTOR('',#474,0.707106781186548);
#61=VECTOR('',#475,0.09375);
#62=VECTOR('',#478,9.2);
#63=PLANE('',#377);
#64=PLANE('',#378);
#65=PLANE('',#379);
#66=PLANE('',#380);
#67=PLANE('',#381);
#68=PLANE('',#382);
#69=PLANE('',#383);
#70=PLANE('',#384);
#71=PLANE('',#385);
#72=PLANE('',#386);
#73=FACE_BOUND('',#116,.T.);
#74=FACE_BOUND('',#118,.T.);
#75=FACE_BOUND('',#120,.T.);
#76=FACE_BOUND('',#122,.T.);
#77=FACE_BOUND('',#124,.T.);
#78=FACE_BOUND('',#126,.T.);
#79=FACE_BOUND('',#128,.T.);
#80=FACE_BOUND('',#130,.T.);
#81=FACE_BOUND('',#134,.T.);
#82=FACE_BOUND('',#135,.T.);
#83=FACE_BOUND('',#136,.T.);
#84=FACE_BOUND('',#137,.T.);
#85=FACE_BOUND('',#138,.T.);
#86=FACE_BOUND('',#139,.T.);
#87=FACE_BOUND('',#140,.T.);
#88=FACE_BOUND('',#141,.T.);
#89=FACE_BOUND('',#149,.T.);
#90=FACE_BOUND('',#150,.T.);
#91=FACE_BOUND('',#151,.T.);
#92=FACE_BOUND('',#152,.T.);
#93=FACE_BOUND('',#153,.T.);
#94=FACE_BOUND('',#154,.T.);
#95=FACE_BOUND('',#155,.T.);
#96=FACE_BOUND('',#156,.T.);
#97=FACE_OUTER_BOUND('',#115,.T.);
#98=FACE_OUTER_BOUND('',#117,.T.);
#99=FACE_OUTER_BOUND('',#119,.T.);
#100=FACE_OUTER_BOUND('',#121,.T.);
#101=FACE_OUTER_BOUND('',#123,.T.);
#102=FACE_OUTER_BOUND('',#125,.T.);
#103=FACE_OUTER_BOUND('',#127,.T.);
#104=FACE_OUTER_BOUND('',#129,.T.);
#105=FACE_OUTER_BOUND('',#131,.T.);
#106=FACE_OUTER_BOUND('',#132,.T.);
#107=FACE_OUTER_BOUND('',#133,.T.);
#108=FACE_OUTER_BOUND('',#142,.T.);
#109=FACE_OUTER_BOUND('',#143,.T.);
#110=FACE_OUTER_BOUND('',#144,.T.);
#111=FACE_OUTER_BOUND('',#145,.T.);
#112=FACE_OUTER_BOUND('',#146,.T.);
#113=FACE_OUTER_BOUND('',#147,.T.);
#114=FACE_OUTER_BOUND('',#148,.T.);
#115=EDGE_LOOP('',(#245));
#116=EDGE_LOOP('',(#246));
#117=EDGE_LOOP('',(#247));
#118=EDGE_LOOP('',(#248));
#119=EDGE_LOOP('',(#249));
#120=EDGE_LOOP('',(#250));
#121=EDGE_LOOP('',(#251));
#122=EDGE_LOOP('',(#252));
#123=EDGE_LOOP('',(#253));
#124=EDGE_LOOP('',(#254));
#125=EDGE_LOOP('',(#255));
#126=EDGE_LOOP('',(#256));
#127=EDGE_LOOP('',(#257));
#128=EDGE_LOOP('',(#258));
#129=EDGE_LOOP('',(#259));
#130=EDGE_LOOP('',(#260));
#131=EDGE_LOOP('',(#261,#262,#263,#264));
#132=EDGE_LOOP('',(#265,#266,#267,#268));
#133=EDGE_LOOP('',(#269,#270,#271,#272,#273,#274,#275,#276));
#134=EDGE_LOOP('',(#277));
#135=EDGE_LOOP('',(#278));
#136=EDGE_LOOP('',(#279));
#137=EDGE_LOOP('',(#280));
#138=EDGE_LOOP('',(#281));
#139=EDGE_LOOP('',(#282));
#140=EDGE_LOOP('',(#283));
#141=EDGE_LOOP('',(#284));
#142=EDGE_LOOP('',(#285,#286,#287,#288));
#143=EDGE_LOOP('',(#289,#290,#291,#292));
#144=EDGE_LOOP('',(#293,#294,#295,#296));
#145=EDGE_LOOP('',(#297,#298,#299,#300));
#146=EDGE_LOOP('',(#301,#302,#303,#304));
#147=EDGE_LOOP('',(#305,#306,#307,#308));
#148=EDGE_LOOP('',(#309,#310,#311,#312,#313,#314,#315,#316));
#149=EDGE_LOOP('',(#317));
#150=EDGE_LOOP('',(#318));
#151=EDGE_LOOP('',(#319));
#152=EDGE_LOOP('',(#320));
#153=EDGE_LOOP('',(#321));
#154=EDGE_LOOP('',(#322));
#155=EDGE_LOOP('',(#323));
#156=EDGE_LOOP('',(#324));
#157=CIRCLE('',#354,0.25);
#158=CIRCLE('',#355,0.25);
#159=CIRCLE('',#357,0.25);
#160=CIRCLE('',#358,0.25);
#161=CIRCLE('',#360,0.25);
#162=CIRCLE('',#361,0.25);
#163=CIRCLE('',#363,0.25);
#164=CIRCLE('',#364,0.25);
#165=CIRCLE('',#366,0.15625);
#166=CIRCLE('',#367,0.15625);
#167=CIRCLE('',#369,0.15625);
#168=CIRCLE('',#370,0.15625);
#169=CIRCLE('',#372,0.15625);
#170=CIRCLE('',#373,0.15625);
#171=CIRCLE('',#375,0.15625);
#172=CIRCLE('',#376,0.15625);
#173=VERTEX_POINT('',#483);
#174=VERTEX_POINT('',#485);
#175=VERTEX_POINT('',#488);
#176=VERTEX_POINT('',#490);
#177=VERTEX_POINT('',#493);
#178=VERTEX_POINT('',#495);
#179=VERTEX_POINT('',#498);
#180=VERTEX_POINT('',#500);
#181=VERTEX_POINT('',#503);
#182=VERTEX_POINT('',#505);
#183=VERTEX_POINT('',#508);
#184=VERTEX_POINT('',#510);
#185=VERTEX_POINT('',#513);
#186=VERTEX_POINT('',#515);
#187=VERTEX_POINT('',#518);
#188=VERTEX_POINT('',#520);
#189=VERTEX_POINT('',#523);
#190=VERTEX_POINT('',#524);
#191=VERTEX_POINT('',#526);
#192=VERTEX_POINT('',#528);
#193=VERTEX_POINT('',#532);
#194=VERTEX_POINT('',#534);
#195=VERTEX_POINT('',#538);
#196=VERTEX_POINT('',#540);
#197=VERTEX_POINT('',#542);
#198=VERTEX_POINT('',#544);
#199=VERTEX_POINT('',#546);
#200=VERTEX_POINT('',#550);
#201=VERTEX_POINT('',#554);
#202=VERTEX_POINT('',#558);
#203=VERTEX_POINT('',#562);
#204=VERTEX_POINT('',#566);
#205=EDGE_CURVE('',#173,#173,#157,.T.);
#206=EDGE_CURVE('',#174,#174,#158,.T.);
#207=EDGE_CURVE('',#175,#175,#159,.T.);
#208=EDGE_CURVE('',#176,#176,#160,.T.);
#209=EDGE_CURVE('',#177,#177,#161,.T.);
#210=EDGE_CURVE('',#178,#178,#162,.T.);
#211=EDGE_CURVE('',#179,#179,#163,.T.);
#212=EDGE_CURVE('',#180,#180,#164,.T.);
#213=EDGE_CURVE('',#181,#181,#165,.T.);
#214=EDGE_CURVE('',#182,#182,#166,.T.);
#215=EDGE_CURVE('',#183,#183,#167,.T.);
#216=EDGE_CURVE('',#184,#184,#168,.T.);
#217=EDGE_CURVE('',#185,#185,#169,.T.);
#218=EDGE_CURVE('',#186,#186,#170,.T.);
#219=EDGE_CURVE('',#187,#187,#171,.T.);
#220=EDGE_CURVE('',#188,#188,#172,.T.);
#221=EDGE_CURVE('',#189,#190,#15,.T.);
#222=EDGE_CURVE('',#190,#191,#16,.T.);
#223=EDGE_CURVE('',#191,#192,#17,.T.);
#224=EDGE_CURVE('',#192,#189,#18,.T.);
#225=EDGE_CURVE('',#192,#193,#19,.T.);
#226=EDGE_CURVE('',#194,#193,#20,.T.);
#227=EDGE_CURVE('',#194,#189,#21,.T.);
#228=EDGE_CURVE('',#195,#191,#22,.T.);
#229=EDGE_CURVE('',#196,#195,#23,.T.);
#230=EDGE_CURVE('',#197,#196,#24,.T.);
#231=EDGE_CURVE('',#198,#197,#25,.T.);
#232=EDGE_CURVE('',#199,#198,#26,.T.);
#233=EDGE_CURVE('',#193,#199,#27,.T.);
#234=EDGE_CURVE('',#200,#194,#28,.T.);
#235=EDGE_CURVE('',#199,#200,#29,.T.);
#236=EDGE_CURVE('',#201,#198,#30,.T.);
#237=EDGE_CURVE('',#201,#200,#31,.T.);
#238=EDGE_CURVE('',#202,#201,#32,.T.);
#239=EDGE_CURVE('',#197,#202,#33,.T.);
#240=EDGE_CURVE('',#203,#196,#34,.T.);
#241=EDGE_CURVE('',#203,#202,#35,.T.);
#242=EDGE_CURVE('',#204,#203,#36,.T.);
#243=EDGE_CURVE('',#195,#204,#37,.T.);
#244=EDGE_CURVE('',#190,#204,#38,.T.);
#245=ORIENTED_EDGE('',*,*,#205,.F.);
#246=ORIENTED_EDGE('',*,*,#206,.F.);
#247=ORIENTED_EDGE('',*,*,#207,.F.);
#248=ORIENTED_EDGE('',*,*,#208,.F.);
#249=ORIENTED_EDGE('',*,*,#209,.F.);
#250=ORIENTED_EDGE('',*,*,#210,.F.);
#251=ORIENTED_EDGE('',*,*,#211,.F.);
#252=ORIENTED_EDGE('',*,*,#212,.F.);
#253=ORIENTED_EDGE('',*,*,#213,.F.);
#254=ORIENTED_EDGE('',*,*,#214,.F.);
#255=ORIENTED_EDGE('',*,*,#215,.F.);
#256=ORIENTED_EDGE('',*,*,#216,.F.);
#257=ORIENTED_EDGE('',*,*,#217,.F.);
#258=ORIENTED_EDGE('',*,*,#218,.F.);
#259=ORIENTED_EDGE('',*,*,#219,.F.);
#260=ORIENTED_EDGE('',*,*,#220,.F.);
#261=ORIENTED_EDGE('',*,*,#221,.T.);
#262=ORIENTED_EDGE('',*,*,#222,.T.);
#263=ORIENTED_EDGE('',*,*,#223,.T.);
#264=ORIENTED_EDGE('',*,*,#224,.T.);
#265=ORIENTED_EDGE('',*,*,#224,.F.);
#266=ORIENTED_EDGE('',*,*,#225,.T.);
#267=ORIENTED_EDGE('',*,*,#226,.F.);
#268=ORIENTED_EDGE('',*,*,#227,.T.);
#269=ORIENTED_EDGE('',*,*,#223,.F.);
#270=ORIENTED_EDGE('',*,*,#228,.F.);
#271=ORIENTED_EDGE('',*,*,#229,.F.);
#272=ORIENTED_EDGE('',*,*,#230,.F.);
#273=ORIENTED_EDGE('',*,*,#231,.F.);
#274=ORIENTED_EDGE('',*,*,#232,.F.);
#275=ORIENTED_EDGE('',*,*,#233,.F.);
#276=ORIENTED_EDGE('',*,*,#225,.F.);
#277=ORIENTED_EDGE('',*,*,#205,.T.);
#278=ORIENTED_EDGE('',*,*,#207,.T.);
#279=ORIENTED_EDGE('',*,*,#209,.T.);
#280=ORIENTED_EDGE('',*,*,#211,.T.);
#281=ORIENTED_EDGE('',*,*,#213,.T.);
#282=ORIENTED_EDGE('',*,*,#215,.T.);
#283=ORIENTED_EDGE('',*,*,#217,.T.);
#284=ORIENTED_EDGE('',*,*,#219,.T.);
#285=ORIENTED_EDGE('',*,*,#234,.T.);
#286=ORIENTED_EDGE('',*,*,#226,.T.);
#287=ORIENTED_EDGE('',*,*,#233,.T.);
#288=ORIENTED_EDGE('',*,*,#235,.T.);
#289=ORIENTED_EDGE('',*,*,#235,.F.);
#290=ORIENTED_EDGE('',*,*,#232,.T.);
#291=ORIENTED_EDGE('',*,*,#236,.F.);
#292=ORIENTED_EDGE('',*,*,#237,.T.);
#293=ORIENTED_EDGE('',*,*,#238,.T.);
#294=ORIENTED_EDGE('',*,*,#236,.T.);
#295=ORIENTED_EDGE('',*,*,#231,.T.);
#296=ORIENTED_EDGE('',*,*,#239,.T.);
#297=ORIENTED_EDGE('',*,*,#239,.F.);
#298=ORIENTED_EDGE('',*,*,#230,.T.);
#299=ORIENTED_EDGE('',*,*,#240,.F.);
#300=ORIENTED_EDGE('',*,*,#241,.T.);
#301=ORIENTED_EDGE('',*,*,#242,.T.);
#302=ORIENTED_EDGE('',*,*,#240,.T.);
#303=ORIENTED_EDGE('',*,*,#229,.T.);
#304=ORIENTED_EDGE('',*,*,#243,.T.);
#305=ORIENTED_EDGE('',*,*,#222,.F.);
#306=ORIENTED_EDGE('',*,*,#244,.T.);
#307=ORIENTED_EDGE('',*,*,#243,.F.);
#308=ORIENTED_EDGE('',*,*,#228,.T.);
#309=ORIENTED_EDGE('',*,*,#221,.F.);
#310=ORIENTED_EDGE('',*,*,#227,.F.);
#311=ORIENTED_EDGE('',*,*,#234,.F.);
#312=ORIENTED_EDGE('',*,*,#237,.F.);
#313=ORIENTED_EDGE('',*,*,#238,.F.);
#314=ORIENTED_EDGE('',*,*,#241,.F.);
#315=ORIENTED_EDGE('',*,*,#242,.F.);
#316=ORIENTED_EDGE('',*,*,#244,.F.);
#317=ORIENTED_EDGE('',*,*,#206,.T.);
#318=ORIENTED_EDGE('',*,*,#208,.T.);
#319=ORIENTED_EDGE('',*,*,#210,.T.);
#320=ORIENTED_EDGE('',*,*,#212,.T.);
#321=ORIENTED_EDGE('',*,*,#214,.T.);
#322=ORIENTED_EDGE('',*,*,#216,.T.);
#323=ORIENTED_EDGE('',*,*,#218,.T.);
#324=ORIENTED_EDGE('',*,*,#220,.T.);
#325=CYLINDRICAL_SURFACE('',#353,0.25);
#326=CYLINDRICAL_SURFACE('',#356,0.25);
#327=CYLINDRICAL_SURFACE('',#359,0.25);
#328=CYLINDRICAL_SURFACE('',#362,0.25);
#329=CYLINDRICAL_SURFACE('',#365,0.15625);
#330=CYLINDRICAL_SURFACE('',#368,0.15625);
#331=CYLINDRICAL_SURFACE('',#371,0.15625);
#332=CYLINDRICAL_SURFACE('',#374,0.15625);
#333=ADVANCED_FACE('',(#97,#73),#325,.F.);
#334=ADVANCED_FACE('',(#98,#74),#326,.F.);
#335=ADVANCED_FACE('',(#99,#75),#327,.F.);
#336=ADVANCED_FACE('',(#100,#76),#328,.F.);
#337=ADVANCED_FACE('',(#101,#77),#329,.F.);
#338=ADVANCED_FACE('',(#102,#78),#330,.F.);
#339=ADVANCED_FACE('',(#103,#79),#331,.F.);
#340=ADVANCED_FACE('',(#104,#80),#332,.F.);
#341=ADVANCED_FACE('',(#105),#63,.T.);
#342=ADVANCED_FACE('',(#106),#64,.T.);
#343=ADVANCED_FACE('',(#107,#81,#82,#83,#84,#85,#86,#87,#88),#65,.F.);
#344=ADVANCED_FACE('',(#108),#66,.T.);
#345=ADVANCED_FACE('',(#109),#67,.T.);
#346=ADVANCED_FACE('',(#110),#68,.T.);
#347=ADVANCED_FACE('',(#111),#69,.T.);
#348=ADVANCED_FACE('',(#112),#70,.T.);
#349=ADVANCED_FACE('',(#113),#71,.T.);
#350=ADVANCED_FACE('',(#114,#89,#90,#91,#92,#93,#94,#95,#96),#72,.T.);
#351=CLOSED_SHELL('',(#333,#334,#335,#336,#337,#338,#339,#340,#341,#342,
#343,#344,#345,#346,#347,#348,#349,#350));
#352=AXIS2_PLACEMENT_3D('placement',#481,#387,#388);
#353=AXIS2_PLACEMENT_3D('',#482,#389,#390);
#354=AXIS2_PLACEMENT_3D('',#484,#391,#392);
#355=AXIS2_PLACEMENT_3D('',#486,#393,#394);
#356=AXIS2_PLACEMENT_3D('',#487,#395,#396);
#357=AXIS2_PLACEMENT_3D('',#489,#397,#398);
#358=AXIS2_PLACEMENT_3D('',#491,#399,#400);
#359=AXIS2_PLACEMENT_3D('',#492,#401,#402);
#360=AXIS2_PLACEMENT_3D('',#494,#403,#404);
#361=AXIS2_PLACEMENT_3D('',#496,#405,#406);
#362=AXIS2_PLACEMENT_3D('',#497,#407,#408);
#363=AXIS2_PLACEMENT_3D('',#499,#409,#410);
#364=AXIS2_PLACEMENT_3D('',#501,#411,#412);
#365=AXIS2_PLACEMENT_3D('',#502,#413,#414);
#366=AXIS2_PLACEMENT_3D('',#504,#415,#416);
#367=AXIS2_PLACEMENT_3D('',#506,#417,#418);
#368=AXIS2_PLACEMENT_3D('',#507,#419,#420);
#369=AXIS2_PLACEMENT_3D('',#509,#421,#422);
#370=AXIS2_PLACEMENT_3D('',#511,#423,#424);
#371=AXIS2_PLACEMENT_3D('',#512,#425,#426);
#372=AXIS2_PLACEMENT_3D('',#514,#427,#428);
#373=AXIS2_PLACEMENT_3D('',#516,#429,#430);
#374=AXIS2_PLACEMENT_3D('',#517,#431,#432);
#375=AXIS2_PLACEMENT_3D('',#519,#433,#434);
#376=AXIS2_PLACEMENT_3D('',#521,#435,#436);
#377=AXIS2_PLACEMENT_3D('',#522,#437,#438);
#378=AXIS2_PLACEMENT_3D('',#531,#443,#444);
#379=AXIS2_PLACEMENT_3D('',#537,#448,#449);
#380=AXIS2_PLACEMENT_3D('',#549,#456,#457);
#381=AXIS2_PLACEMENT_3D('',#553,#460,#461);
#382=AXIS2_PLACEMENT_3D('',#557,#464,#465);
#383=AXIS2_PLACEMENT_3D('',#561,#468,#469);
#384=AXIS2_PLACEMENT_3D('',#565,#472,#473);
#385=AXIS2_PLACEMENT_3D('',#569,#476,#477);
#386=AXIS2_PLACEMENT_3D('',#571,#479,#480);
#387=DIRECTION('axis',(0.,0.,1.));
#388=DIRECTION('refdir',(1.,0.,0.));
#389=DIRECTION('center_axis',(0.,0.,-1.));
#390=DIRECTION('ref_axis',(-1.,0.,0.));
#391=DIRECTION('center_axis',(0.,0.,1.));
#392=DIRECTION('ref_axis',(-1.,0.,0.));
#393=DIRECTION('center_axis',(0.,0.,-1.));
#394=DIRECTION('ref_axis',(-1.,0.,0.));
#395=DIRECTION('center_axis',(0.,0.,-1.));
#396=DIRECTION('ref_axis',(-1.,0.,0.));
#397=DIRECTION('center_axis',(0.,0.,1.));
#398=DIRECTION('ref_axis',(-1.,0.,0.));
#399=DIRECTION('center_axis',(0.,0.,-1.));
#400=DIRECTION('ref_axis',(-1.,0.,0.));
#401=DIRECTION('center_axis',(0.,0.,-1.));
#402=DIRECTION('ref_axis',(-1.,0.,0.));
#403=DIRECTION('center_axis',(0.,0.,1.));
#404=DIRECTION('ref_axis',(-1.,0.,0.));
#405=DIRECTION('center_axis',(0.,0.,-1.));
#406=DIRECTION('ref_axis',(-1.,0.,0.));
#407=DIRECTION('center_axis',(0.,0.,-1.));
#408=DIRECTION('ref_axis',(-1.,0.,0.));
#409=DIRECTION('center_axis',(0.,0.,1.));
#410=DIRECTION('ref_axis',(-1.,0.,0.));
#411=DIRECTION('center_axis',(0.,0.,-1.));
#412=DIRECTION('ref_axis',(-1.,0.,0.));
#413=DIRECTION('center_axis',(0.,0.,-1.));
#414=DIRECTION('ref_axis',(-1.,0.,0.));
#415=DIRECTION('center_axis',(0.,0.,1.));
#416=DIRECTION('ref_axis',(-1.,0.,0.));
#417=DIRECTION('center_axis',(0.,0.,-1.));
#418=DIRECTION('ref_axis',(-1.,0.,0.));
#419=DIRECTION('center_axis',(0.,0.,-1.));
#420=DIRECTION('ref_axis',(-1.,0.,0.));
#421=DIRECTION('center_axis',(0.,0.,1.));
#422=DIRECTION('ref_axis',(-1.,0.,0.));
#423=DIRECTION('center_axis',(0.,0.,-1.));
#424=DIRECTION('ref_axis',(-1.,0.,0.));
#425=DIRECTION('center_axis',(0.,0.,-1.));
#426=DIRECTION('ref_axis',(-1.,0.,0.));
#427=DIRECTION('center_axis',(0.,0.,1.));
#428=DIRECTION('ref_axis',(-1.,0.,0.));
#429=DIRECTION('center_axis',(0.,0.,-1.));
#430=DIRECTION('ref_axis',(-1.,0.,0.));
#431=DIRECTION('center_axis',(0.,0.,-1.));
#432=DIRECTION('ref_axis',(-1.,0.,0.));
#433=DIRECTION('center_axis',(0.,0.,1.));
#434=DIRECTION('ref_axis',(-1.,0.,0.));
#435=DIRECTION('center_axis',(0.,0.,-1.));
#436=DIRECTION('ref_axis',(-1.,0.,0.));
#437=DIRECTION('center_axis',(-0.707106781186549,0.707106781186547,0.));
#438=DIRECTION('ref_axis',(0.,0.,1.));
#439=DIRECTION('',(0.707106781186546,0.707106781186548,0.));
#440=DIRECTION('',(0.,0.,-1.));
#441=DIRECTION('',(-0.707106781186546,-0.707106781186548,0.));
#442=DIRECTION('',(0.,0.,1.));
#443=DIRECTION('center_axis',(-1.,-3.06161699786838E-16,0.));
#444=DIRECTION('ref_axis',(0.,0.,1.));
#445=DIRECTION('',(3.06161699786838E-16,-1.,0.));
#446=DIRECTION('',(0.,0.,-1.));
#447=DIRECTION('',(-3.06161699786838E-16,1.,0.));
#448=DIRECTION('center_axis',(0.,0.,1.));
#449=DIRECTION('ref_axis',(1.,0.,0.));
#450=DIRECTION('',(-1.,0.,0.));
#451=DIRECTION('',(-0.707106781186546,0.707106781186549,0.));
#452=DIRECTION('',(-1.97000869402268E-16,1.,0.));
#453=DIRECTION('',(0.707106781186546,0.707106781186549,0.));
#454=DIRECTION('',(1.,0.,0.));
#455=DIRECTION('',(0.707106781186547,-0.707106781186548,0.));
#456=DIRECTION('center_axis',(-0.707106781186548,-0.707106781186547,0.));
#457=DIRECTION('ref_axis',(0.,0.,1.));
#458=DIRECTION('',(-0.707106781186547,0.707106781186548,0.));
#459=DIRECTION('',(0.,0.,1.));
#460=DIRECTION('center_axis',(0.,-1.,0.));
#461=DIRECTION('ref_axis',(0.,0.,-1.));
#462=DIRECTION('',(0.,0.,-1.));
#463=DIRECTION('',(-1.,0.,0.));
#464=DIRECTION('center_axis',(0.707106781186549,-0.707106781186546,0.));
#465=DIRECTION('ref_axis',(0.,0.,-1.));
#466=DIRECTION('',(-0.707106781186546,-0.707106781186549,0.));
#467=DIRECTION('',(0.,0.,1.));
#468=DIRECTION('center_axis',(1.,1.97000869402268E-16,0.));
#469=DIRECTION('ref_axis',(0.,0.,-1.));
#470=DIRECTION('',(0.,0.,-1.));
#471=DIRECTION('',(1.97000869402268E-16,-1.,0.));
#472=DIRECTION('center_axis',(0.707106781186549,0.707106781186547,0.));
#473=DIRECTION('ref_axis',(0.,0.,-1.));
#474=DIRECTION('',(0.707106781186546,-0.707106781186548,0.));
#475=DIRECTION('',(0.,0.,1.));
#476=DIRECTION('center_axis',(0.,1.,0.));
#477=DIRECTION('ref_axis',(0.,0.,1.));
#478=DIRECTION('',(1.,0.,0.));
#479=DIRECTION('center_axis',(0.,0.,1.));
#480=DIRECTION('ref_axis',(1.,0.,0.));
#481=CARTESIAN_POINT('',(0.,0.,0.));
#482=CARTESIAN_POINT('Origin',(9.68,13.68,0.09375));
#483=CARTESIAN_POINT('',(9.93,13.68,0.));
#484=CARTESIAN_POINT('Origin',(9.68,13.68,0.));
#485=CARTESIAN_POINT('',(9.93,13.68,0.09375));
#486=CARTESIAN_POINT('Origin',(9.68,13.68,0.09375));
#487=CARTESIAN_POINT('Origin',(0.52,13.68,0.09375));
#488=CARTESIAN_POINT('',(0.77,13.68,0.));
#489=CARTESIAN_POINT('Origin',(0.52,13.68,0.));
#490=CARTESIAN_POINT('',(0.77,13.68,0.09375));
#491=CARTESIAN_POINT('Origin',(0.52,13.68,0.09375));
#492=CARTESIAN_POINT('Origin',(0.52,0.52,0.09375));
#493=CARTESIAN_POINT('',(0.77,0.52,0.));
#494=CARTESIAN_POINT('Origin',(0.52,0.52,0.));
#495=CARTESIAN_POINT('',(0.77,0.52,0.09375));
#496=CARTESIAN_POINT('Origin',(0.52,0.52,0.09375));
#497=CARTESIAN_POINT('Origin',(9.68,0.52,0.09375));
#498=CARTESIAN_POINT('',(9.93,0.52,0.));
#499=CARTESIAN_POINT('Origin',(9.68,0.52,0.));
#500=CARTESIAN_POINT('',(9.93,0.52,0.09375));
#501=CARTESIAN_POINT('Origin',(9.68,0.52,0.09375));
#502=CARTESIAN_POINT('Origin',(9.68,12.93,0.09375));
#503=CARTESIAN_POINT('',(9.83625,12.93,0.));
#504=CARTESIAN_POINT('Origin',(9.68,12.93,0.));
#505=CARTESIAN_POINT('',(9.83625,12.93,0.09375));
#506=CARTESIAN_POINT('Origin',(9.68,12.93,0.09375));
#507=CARTESIAN_POINT('Origin',(0.52,12.93,0.09375));
#508=CARTESIAN_POINT('',(0.67625,12.93,0.));
#509=CARTESIAN_POINT('Origin',(0.52,12.93,0.));
#510=CARTESIAN_POINT('',(0.67625,12.93,0.09375));
#511=CARTESIAN_POINT('Origin',(0.52,12.93,0.09375));
#512=CARTESIAN_POINT('Origin',(0.519999999999999,1.27,0.09375));
#513=CARTESIAN_POINT('',(0.676249999999999,1.27,0.));
#514=CARTESIAN_POINT('Origin',(0.519999999999999,1.27,0.));
#515=CARTESIAN_POINT('',(0.676249999999999,1.27,0.09375));
#516=CARTESIAN_POINT('Origin',(0.519999999999999,1.27,0.09375));
#517=CARTESIAN_POINT('Origin',(9.68,1.27,0.09375));
#518=CARTESIAN_POINT('',(9.83625,1.27,0.));
#519=CARTESIAN_POINT('Origin',(9.68,1.27,0.));
#520=CARTESIAN_POINT('',(9.83625,1.27,0.09375));
#521=CARTESIAN_POINT('Origin',(9.68,1.27,0.09375));
#522=CARTESIAN_POINT('Origin',(0.249999999999996,13.95,0.));
#523=CARTESIAN_POINT('',(-4.19441528707968E-15,13.7,0.09375));
#524=CARTESIAN_POINT('',(0.499999999999996,14.2,0.09375));
#525=CARTESIAN_POINT('',(-0.250000000000006,13.45,0.09375));
#526=CARTESIAN_POINT('',(0.499999999999996,14.2,0.));
#527=CARTESIAN_POINT('',(0.499999999999996,14.2,0.));
#528=CARTESIAN_POINT('',(-4.19441528707968E-15,13.7,0.));
#529=CARTESIAN_POINT('',(-0.250000000000006,13.45,0.));
#530=CARTESIAN_POINT('',(-4.19611851826831E-15,13.7,0.));
#531=CARTESIAN_POINT('Origin',(0.,0.,0.));
#532=CARTESIAN_POINT('',(-1.5308084989342E-16,0.500000000000001,0.));
#533=CARTESIAN_POINT('',(-4.3474961369731E-15,14.2,0.));
#534=CARTESIAN_POINT('',(-1.5308084989342E-16,0.500000000000001,0.09375));
#535=CARTESIAN_POINT('',(-1.74838271594513E-16,0.5,0.));
#536=CARTESIAN_POINT('',(-4.3474961369731E-15,14.2,0.09375));
#537=CARTESIAN_POINT('Origin',(5.1,7.1,0.));
#538=CARTESIAN_POINT('',(9.7,14.2,0.));
#539=CARTESIAN_POINT('',(10.2,14.2,0.));
#540=CARTESIAN_POINT('',(10.2,13.7,0.));
#541=CARTESIAN_POINT('',(10.45,13.45,0.));
#542=CARTESIAN_POINT('',(10.2,0.500000000000001,0.));
#543=CARTESIAN_POINT('',(10.2,0.,0.));
#544=CARTESIAN_POINT('',(9.7,0.,0.));
#545=CARTESIAN_POINT('',(10.45,0.750000000000005,0.));
#546=CARTESIAN_POINT('',(0.5,0.,0.));
#547=CARTESIAN_POINT('',(0.,0.,0.));
#548=CARTESIAN_POINT('',(-0.25,0.750000000000001,0.));
#549=CARTESIAN_POINT('Origin',(0.25,0.25,0.));
#550=CARTESIAN_POINT('',(0.5,0.,0.09375));
#551=CARTESIAN_POINT('',(-0.250000000000001,0.750000000000001,0.09375));
#552=CARTESIAN_POINT('',(0.5,0.,0.));
#553=CARTESIAN_POINT('Origin',(10.2,0.,0.));
#554=CARTESIAN_POINT('',(9.7,0.,0.09375));
#555=CARTESIAN_POINT('',(9.7,0.,0.));
#556=CARTESIAN_POINT('',(0.,0.,0.09375));
#557=CARTESIAN_POINT('Origin',(9.95,0.250000000000001,0.));
#558=CARTESIAN_POINT('',(10.2,0.500000000000001,0.09375));
#559=CARTESIAN_POINT('',(10.45,0.750000000000005,0.09375));
#560=CARTESIAN_POINT('',(10.2,0.500000000000001,0.));
#561=CARTESIAN_POINT('Origin',(10.2,14.2,0.));
#562=CARTESIAN_POINT('',(10.2,13.7,0.09375));
#563=CARTESIAN_POINT('',(10.2,13.7,0.));
#564=CARTESIAN_POINT('',(10.2,0.,0.09375));
#565=CARTESIAN_POINT('Origin',(9.95,13.95,0.));
#566=CARTESIAN_POINT('',(9.7,14.2,0.09375));
#567=CARTESIAN_POINT('',(10.45,13.45,0.09375));
#568=CARTESIAN_POINT('',(9.7,14.2,0.));
#569=CARTESIAN_POINT('Origin',(-4.3474961369731E-15,14.2,0.));
#570=CARTESIAN_POINT('',(10.2,14.2,0.09375));
#571=CARTESIAN_POINT('Origin',(5.1,7.1,0.09375));
#572=UNCERTAINTY_MEASURE_WITH_UNIT(LENGTH_MEASURE(0.000393700787401575),
#576,'DISTANCE_ACCURACY_VALUE',
'Maximum model space distance between geometric entities at asserted c
onnectivities');
#573=UNCERTAINTY_MEASURE_WITH_UNIT(LENGTH_MEASURE(1.E-6),#577,
'DISTANCE_ACCURACY_VALUE',
'Maximum model space distance between geometric entities at asserted c
onnectivities');
#574=(
GEOMETRIC_REPRESENTATION_CONTEXT(3)
GLOBAL_UNCERTAINTY_ASSIGNED_CONTEXT((#572))
GLOBAL_UNIT_ASSIGNED_CONTEXT((#576,#582,#579))
REPRESENTATION_CONTEXT('','3D')
);
#575=(
GEOMETRIC_REPRESENTATION_CONTEXT(3)
GLOBAL_UNCERTAINTY_ASSIGNED_CONTEXT((#573))
GLOBAL_UNIT_ASSIGNED_CONTEXT((#577,#582,#579))
REPRESENTATION_CONTEXT('','3D')
);
#576=(
CONVERSION_BASED_UNIT('__CONSTANT UNIT inch',#578)
LENGTH_UNIT()
NAMED_UNIT(#581)
);
#577=(
LENGTH_UNIT()
NAMED_UNIT(*)
SI_UNIT(.MILLI.,.METRE.)
);
#578=LENGTH_MEASURE_WITH_UNIT(LENGTH_MEASURE(25.4),#577);
#579=(
NAMED_UNIT(*)
SI_UNIT($,.STERADIAN.)
SOLID_ANGLE_UNIT()
);
#580=DIMENSIONAL_EXPONENTS(0.,0.,0.,0.,0.,0.,0.);
#581=DIMENSIONAL_EXPONENTS(1.,0.,0.,0.,0.,0.,0.);
#582=(
CONVERSION_BASED_UNIT('degree',#584)
NAMED_UNIT(#580)
PLANE_ANGLE_UNIT()
);
#583=(
NAMED_UNIT(*)
PLANE_ANGLE_UNIT()
SI_UNIT($,.RADIAN.)
);
#584=PLANE_ANGLE_MEASURE_WITH_UNIT(PLANE_ANGLE_MEASURE(0.01745329252),#583);
#585=SHAPE_DEFINITION_REPRESENTATION(#586,#587);
#586=PRODUCT_DEFINITION_SHAPE('',$,#589);
#587=SHAPE_REPRESENTATION('',(#352),#574);
#588=PRODUCT_DEFINITION_CONTEXT('part definition',#593,'design');
#589=PRODUCT_DEFINITION('NP1212CPP-NP7236CPP','NP1212CPP-NP7236CPP',#590,
#588);
#590=PRODUCT_DEFINITION_FORMATION('',$,#595);
#591=PRODUCT_RELATED_PRODUCT_CATEGORY('NP1212CPP-NP7236CPP',
'NP1212CPP-NP7236CPP',(#595));
#592=APPLICATION_PROTOCOL_DEFINITION('international standard',
'automotive_design',2009,#593);
#593=APPLICATION_CONTEXT(
'Core Data for Automotive Mechanical Design Process');
#594=PRODUCT_CONTEXT('part definition',#593,'mechanical');
#595=PRODUCT('NP1212CPP-NP7236CPP','NP1212CPP-NP7236CPP',$,(#594));
#596=PRESENTATION_STYLE_ASSIGNMENT((#597));
#597=SURFACE_STYLE_USAGE(.BOTH.,#598);
#598=SURFACE_SIDE_STYLE('',(#599));
#599=SURFACE_STYLE_FILL_AREA(#600);
#600=FILL_AREA_STYLE('',(#601));
#601=FILL_AREA_STYLE_COLOUR('',#602);
#602=COLOUR_RGB('',0.63921568627451,0.63921568627451,0.686274509803922);
ENDSEC;
END-ISO-10303-21;
