ISO-10303-21;
HEADER;
/* Generated by software containing ST-Developer
 * from STEP Tools, Inc. (www.steptools.com) 
 */

FILE_DESCRIPTION(
/* description */ ('PERFORATED PANEL,ULTIMATE,CS,14.2 X 14.2'),
/* implementation_level */ '2;1');

FILE_NAME(
/* name */ 
'C:\\Wiegmann\\W-Projects\\Birch\\NP_CPP\\NP_CPP DXF, STP & PDF\\NP161
6CPP.stp',
/* time_stamp */ '2016-12-01T11:12:23-06:00',
/* author */ ('bbirch1'),
/* organization */ (''),
/* preprocessor_version */ 'ST-DEVELOPER v16.1',
/* originating_system */ 'Autodesk Inventor 2016',
/* authorisation */ '');

FILE_SCHEMA (('AUTOMOTIVE_DESIGN { 1 0 10303 214 3 1 1 }'));
ENDSEC;

DATA;
#10=MECHANICAL_DESIGN_GEOMETRIC_PRESENTATION_REPRESENTATION('',(#333,#332,
#335,#338,#340,#339,#336,#341,#337,#345,#334,#343,#346,#350,#348,#344,#347,
#342,#349),#593);
#11=SHAPE_REPRESENTATION_RELATIONSHIP('SRR','None',#605,#12);
#12=ADVANCED_BREP_SHAPE_REPRESENTATION('',(#13),#592);
#13=MANIFOLD_SOLID_BREP('Solid1',#369);
#14=LINE('',#543,#38);
#15=LINE('',#545,#39);
#16=LINE('',#547,#40);
#17=LINE('',#548,#41);
#18=LINE('',#551,#42);
#19=LINE('',#553,#43);
#20=LINE('',#554,#44);
#21=LINE('',#557,#45);
#22=LINE('',#559,#46);
#23=LINE('',#561,#47);
#24=LINE('',#563,#48);
#25=LINE('',#565,#49);
#26=LINE('',#566,#50);
#27=LINE('',#569,#51);
#28=LINE('',#570,#52);
#29=LINE('',#573,#53);
#30=LINE('',#574,#54);
#31=LINE('',#577,#55);
#32=LINE('',#578,#56);
#33=LINE('',#581,#57);
#34=LINE('',#582,#58);
#35=LINE('',#585,#59);
#36=LINE('',#586,#60);
#37=LINE('',#588,#61);
#38=VECTOR('',#457,0.707106781186548);
#39=VECTOR('',#458,0.09375);
#40=VECTOR('',#459,0.707106781186548);
#41=VECTOR('',#460,0.09375);
#42=VECTOR('',#463,13.2);
#43=VECTOR('',#464,0.09375);
#44=VECTOR('',#465,13.2);
#45=VECTOR('',#468,13.2);
#46=VECTOR('',#469,0.707106781186549);
#47=VECTOR('',#470,13.2);
#48=VECTOR('',#471,0.707106781186549);
#49=VECTOR('',#472,13.2);
#50=VECTOR('',#473,0.707106781186549);
#51=VECTOR('',#476,0.707106781186549);
#52=VECTOR('',#477,0.09375);
#53=VECTOR('',#480,0.09375);
#54=VECTOR('',#481,13.2);
#55=VECTOR('',#484,0.707106781186549);
#56=VECTOR('',#485,0.09375);
#57=VECTOR('',#488,0.09375);
#58=VECTOR('',#489,13.2);
#59=VECTOR('',#492,0.707106781186549);
#60=VECTOR('',#493,0.09375);
#61=VECTOR('',#496,13.2);
#62=PLANE('',#395);
#63=PLANE('',#396);
#64=PLANE('',#397);
#65=PLANE('',#398);
#66=PLANE('',#399);
#67=PLANE('',#400);
#68=PLANE('',#401);
#69=PLANE('',#402);
#70=PLANE('',#403);
#71=PLANE('',#404);
#72=FACE_BOUND('',#115,.T.);
#73=FACE_BOUND('',#117,.T.);
#74=FACE_BOUND('',#119,.T.);
#75=FACE_BOUND('',#121,.T.);
#76=FACE_BOUND('',#123,.T.);
#77=FACE_BOUND('',#125,.T.);
#78=FACE_BOUND('',#127,.T.);
#79=FACE_BOUND('',#129,.T.);
#80=FACE_BOUND('',#133,.T.);
#81=FACE_BOUND('',#134,.T.);
#82=FACE_BOUND('',#135,.T.);
#83=FACE_BOUND('',#136,.T.);
#84=FACE_BOUND('',#137,.T.);
#85=FACE_BOUND('',#138,.T.);
#86=FACE_BOUND('',#139,.T.);
#87=FACE_BOUND('',#140,.T.);
#88=FACE_BOUND('',#148,.T.);
#89=FACE_BOUND('',#149,.T.);
#90=FACE_BOUND('',#150,.T.);
#91=FACE_BOUND('',#151,.T.);
#92=FACE_BOUND('',#152,.T.);
#93=FACE_BOUND('',#153,.T.);
#94=FACE_BOUND('',#154,.T.);
#95=FACE_BOUND('',#155,.T.);
#96=FACE_OUTER_BOUND('',#114,.T.);
#97=FACE_OUTER_BOUND('',#116,.T.);
#98=FACE_OUTER_BOUND('',#118,.T.);
#99=FACE_OUTER_BOUND('',#120,.T.);
#100=FACE_OUTER_BOUND('',#122,.T.);
#101=FACE_OUTER_BOUND('',#124,.T.);
#102=FACE_OUTER_BOUND('',#126,.T.);
#103=FACE_OUTER_BOUND('',#128,.T.);
#104=FACE_OUTER_BOUND('',#130,.T.);
#105=FACE_OUTER_BOUND('',#131,.T.);
#106=FACE_OUTER_BOUND('',#132,.T.);
#107=FACE_OUTER_BOUND('',#141,.T.);
#108=FACE_OUTER_BOUND('',#142,.T.);
#109=FACE_OUTER_BOUND('',#143,.T.);
#110=FACE_OUTER_BOUND('',#144,.T.);
#111=FACE_OUTER_BOUND('',#145,.T.);
#112=FACE_OUTER_BOUND('',#146,.T.);
#113=FACE_OUTER_BOUND('',#147,.T.);
#114=EDGE_LOOP('',(#244));
#115=EDGE_LOOP('',(#245));
#116=EDGE_LOOP('',(#246));
#117=EDGE_LOOP('',(#247));
#118=EDGE_LOOP('',(#248));
#119=EDGE_LOOP('',(#249));
#120=EDGE_LOOP('',(#250));
#121=EDGE_LOOP('',(#251));
#122=EDGE_LOOP('',(#252));
#123=EDGE_LOOP('',(#253));
#124=EDGE_LOOP('',(#254));
#125=EDGE_LOOP('',(#255));
#126=EDGE_LOOP('',(#256));
#127=EDGE_LOOP('',(#257));
#128=EDGE_LOOP('',(#258));
#129=EDGE_LOOP('',(#259));
#130=EDGE_LOOP('',(#260,#261,#262,#263));
#131=EDGE_LOOP('',(#264,#265,#266,#267));
#132=EDGE_LOOP('',(#268,#269,#270,#271,#272,#273,#274,#275));
#133=EDGE_LOOP('',(#276));
#134=EDGE_LOOP('',(#277));
#135=EDGE_LOOP('',(#278));
#136=EDGE_LOOP('',(#279));
#137=EDGE_LOOP('',(#280));
#138=EDGE_LOOP('',(#281));
#139=EDGE_LOOP('',(#282));
#140=EDGE_LOOP('',(#283));
#141=EDGE_LOOP('',(#284,#285,#286,#287));
#142=EDGE_LOOP('',(#288,#289,#290,#291));
#143=EDGE_LOOP('',(#292,#293,#294,#295));
#144=EDGE_LOOP('',(#296,#297,#298,#299));
#145=EDGE_LOOP('',(#300,#301,#302,#303));
#146=EDGE_LOOP('',(#304,#305,#306,#307));
#147=EDGE_LOOP('',(#308,#309,#310,#311,#312,#313,#314,#315));
#148=EDGE_LOOP('',(#316));
#149=EDGE_LOOP('',(#317));
#150=EDGE_LOOP('',(#318));
#151=EDGE_LOOP('',(#319));
#152=EDGE_LOOP('',(#320));
#153=EDGE_LOOP('',(#321));
#154=EDGE_LOOP('',(#322));
#155=EDGE_LOOP('',(#323));
#156=CIRCLE('',#372,0.25);
#157=CIRCLE('',#373,0.25);
#158=CIRCLE('',#375,0.25);
#159=CIRCLE('',#376,0.25);
#160=CIRCLE('',#378,0.25);
#161=CIRCLE('',#379,0.25);
#162=CIRCLE('',#381,0.25);
#163=CIRCLE('',#382,0.25);
#164=CIRCLE('',#384,0.15625);
#165=CIRCLE('',#385,0.15625);
#166=CIRCLE('',#387,0.15625);
#167=CIRCLE('',#388,0.15625);
#168=CIRCLE('',#390,0.15625);
#169=CIRCLE('',#391,0.15625);
#170=CIRCLE('',#393,0.15625);
#171=CIRCLE('',#394,0.15625);
#172=VERTEX_POINT('',#501);
#173=VERTEX_POINT('',#503);
#174=VERTEX_POINT('',#506);
#175=VERTEX_POINT('',#508);
#176=VERTEX_POINT('',#511);
#177=VERTEX_POINT('',#513);
#178=VERTEX_POINT('',#516);
#179=VERTEX_POINT('',#518);
#180=VERTEX_POINT('',#521);
#181=VERTEX_POINT('',#523);
#182=VERTEX_POINT('',#526);
#183=VERTEX_POINT('',#528);
#184=VERTEX_POINT('',#531);
#185=VERTEX_POINT('',#533);
#186=VERTEX_POINT('',#536);
#187=VERTEX_POINT('',#538);
#188=VERTEX_POINT('',#541);
#189=VERTEX_POINT('',#542);
#190=VERTEX_POINT('',#544);
#191=VERTEX_POINT('',#546);
#192=VERTEX_POINT('',#550);
#193=VERTEX_POINT('',#552);
#194=VERTEX_POINT('',#556);
#195=VERTEX_POINT('',#558);
#196=VERTEX_POINT('',#560);
#197=VERTEX_POINT('',#562);
#198=VERTEX_POINT('',#564);
#199=VERTEX_POINT('',#568);
#200=VERTEX_POINT('',#572);
#201=VERTEX_POINT('',#576);
#202=VERTEX_POINT('',#580);
#203=VERTEX_POINT('',#584);
#204=EDGE_CURVE('',#172,#172,#156,.T.);
#205=EDGE_CURVE('',#173,#173,#157,.T.);
#206=EDGE_CURVE('',#174,#174,#158,.T.);
#207=EDGE_CURVE('',#175,#175,#159,.T.);
#208=EDGE_CURVE('',#176,#176,#160,.T.);
#209=EDGE_CURVE('',#177,#177,#161,.T.);
#210=EDGE_CURVE('',#178,#178,#162,.T.);
#211=EDGE_CURVE('',#179,#179,#163,.T.);
#212=EDGE_CURVE('',#180,#180,#164,.T.);
#213=EDGE_CURVE('',#181,#181,#165,.T.);
#214=EDGE_CURVE('',#182,#182,#166,.T.);
#215=EDGE_CURVE('',#183,#183,#167,.T.);
#216=EDGE_CURVE('',#184,#184,#168,.T.);
#217=EDGE_CURVE('',#185,#185,#169,.T.);
#218=EDGE_CURVE('',#186,#186,#170,.T.);
#219=EDGE_CURVE('',#187,#187,#171,.T.);
#220=EDGE_CURVE('',#188,#189,#14,.T.);
#221=EDGE_CURVE('',#189,#190,#15,.T.);
#222=EDGE_CURVE('',#190,#191,#16,.T.);
#223=EDGE_CURVE('',#191,#188,#17,.T.);
#224=EDGE_CURVE('',#191,#192,#18,.T.);
#225=EDGE_CURVE('',#193,#192,#19,.T.);
#226=EDGE_CURVE('',#193,#188,#20,.T.);
#227=EDGE_CURVE('',#194,#190,#21,.T.);
#228=EDGE_CURVE('',#195,#194,#22,.T.);
#229=EDGE_CURVE('',#196,#195,#23,.T.);
#230=EDGE_CURVE('',#197,#196,#24,.T.);
#231=EDGE_CURVE('',#198,#197,#25,.T.);
#232=EDGE_CURVE('',#192,#198,#26,.T.);
#233=EDGE_CURVE('',#199,#193,#27,.T.);
#234=EDGE_CURVE('',#198,#199,#28,.T.);
#235=EDGE_CURVE('',#200,#197,#29,.T.);
#236=EDGE_CURVE('',#200,#199,#30,.T.);
#237=EDGE_CURVE('',#201,#200,#31,.T.);
#238=EDGE_CURVE('',#196,#201,#32,.T.);
#239=EDGE_CURVE('',#202,#195,#33,.T.);
#240=EDGE_CURVE('',#202,#201,#34,.T.);
#241=EDGE_CURVE('',#203,#202,#35,.T.);
#242=EDGE_CURVE('',#194,#203,#36,.T.);
#243=EDGE_CURVE('',#189,#203,#37,.T.);
#244=ORIENTED_EDGE('',*,*,#204,.F.);
#245=ORIENTED_EDGE('',*,*,#205,.F.);
#246=ORIENTED_EDGE('',*,*,#206,.F.);
#247=ORIENTED_EDGE('',*,*,#207,.F.);
#248=ORIENTED_EDGE('',*,*,#208,.F.);
#249=ORIENTED_EDGE('',*,*,#209,.F.);
#250=ORIENTED_EDGE('',*,*,#210,.F.);
#251=ORIENTED_EDGE('',*,*,#211,.F.);
#252=ORIENTED_EDGE('',*,*,#212,.F.);
#253=ORIENTED_EDGE('',*,*,#213,.F.);
#254=ORIENTED_EDGE('',*,*,#214,.F.);
#255=ORIENTED_EDGE('',*,*,#215,.F.);
#256=ORIENTED_EDGE('',*,*,#216,.F.);
#257=ORIENTED_EDGE('',*,*,#217,.F.);
#258=ORIENTED_EDGE('',*,*,#218,.F.);
#259=ORIENTED_EDGE('',*,*,#219,.F.);
#260=ORIENTED_EDGE('',*,*,#220,.T.);
#261=ORIENTED_EDGE('',*,*,#221,.T.);
#262=ORIENTED_EDGE('',*,*,#222,.T.);
#263=ORIENTED_EDGE('',*,*,#223,.T.);
#264=ORIENTED_EDGE('',*,*,#223,.F.);
#265=ORIENTED_EDGE('',*,*,#224,.T.);
#266=ORIENTED_EDGE('',*,*,#225,.F.);
#267=ORIENTED_EDGE('',*,*,#226,.T.);
#268=ORIENTED_EDGE('',*,*,#222,.F.);
#269=ORIENTED_EDGE('',*,*,#227,.F.);
#270=ORIENTED_EDGE('',*,*,#228,.F.);
#271=ORIENTED_EDGE('',*,*,#229,.F.);
#272=ORIENTED_EDGE('',*,*,#230,.F.);
#273=ORIENTED_EDGE('',*,*,#231,.F.);
#274=ORIENTED_EDGE('',*,*,#232,.F.);
#275=ORIENTED_EDGE('',*,*,#224,.F.);
#276=ORIENTED_EDGE('',*,*,#204,.T.);
#277=ORIENTED_EDGE('',*,*,#206,.T.);
#278=ORIENTED_EDGE('',*,*,#208,.T.);
#279=ORIENTED_EDGE('',*,*,#210,.T.);
#280=ORIENTED_EDGE('',*,*,#212,.T.);
#281=ORIENTED_EDGE('',*,*,#214,.T.);
#282=ORIENTED_EDGE('',*,*,#216,.T.);
#283=ORIENTED_EDGE('',*,*,#218,.T.);
#284=ORIENTED_EDGE('',*,*,#233,.T.);
#285=ORIENTED_EDGE('',*,*,#225,.T.);
#286=ORIENTED_EDGE('',*,*,#232,.T.);
#287=ORIENTED_EDGE('',*,*,#234,.T.);
#288=ORIENTED_EDGE('',*,*,#234,.F.);
#289=ORIENTED_EDGE('',*,*,#231,.T.);
#290=ORIENTED_EDGE('',*,*,#235,.F.);
#291=ORIENTED_EDGE('',*,*,#236,.T.);
#292=ORIENTED_EDGE('',*,*,#237,.T.);
#293=ORIENTED_EDGE('',*,*,#235,.T.);
#294=ORIENTED_EDGE('',*,*,#230,.T.);
#295=ORIENTED_EDGE('',*,*,#238,.T.);
#296=ORIENTED_EDGE('',*,*,#238,.F.);
#297=ORIENTED_EDGE('',*,*,#229,.T.);
#298=ORIENTED_EDGE('',*,*,#239,.F.);
#299=ORIENTED_EDGE('',*,*,#240,.T.);
#300=ORIENTED_EDGE('',*,*,#241,.T.);
#301=ORIENTED_EDGE('',*,*,#239,.T.);
#302=ORIENTED_EDGE('',*,*,#228,.T.);
#303=ORIENTED_EDGE('',*,*,#242,.T.);
#304=ORIENTED_EDGE('',*,*,#221,.F.);
#305=ORIENTED_EDGE('',*,*,#243,.T.);
#306=ORIENTED_EDGE('',*,*,#242,.F.);
#307=ORIENTED_EDGE('',*,*,#227,.T.);
#308=ORIENTED_EDGE('',*,*,#220,.F.);
#309=ORIENTED_EDGE('',*,*,#226,.F.);
#310=ORIENTED_EDGE('',*,*,#233,.F.);
#311=ORIENTED_EDGE('',*,*,#236,.F.);
#312=ORIENTED_EDGE('',*,*,#237,.F.);
#313=ORIENTED_EDGE('',*,*,#240,.F.);
#314=ORIENTED_EDGE('',*,*,#241,.F.);
#315=ORIENTED_EDGE('',*,*,#243,.F.);
#316=ORIENTED_EDGE('',*,*,#205,.T.);
#317=ORIENTED_EDGE('',*,*,#207,.T.);
#318=ORIENTED_EDGE('',*,*,#209,.T.);
#319=ORIENTED_EDGE('',*,*,#211,.T.);
#320=ORIENTED_EDGE('',*,*,#213,.T.);
#321=ORIENTED_EDGE('',*,*,#215,.T.);
#322=ORIENTED_EDGE('',*,*,#217,.T.);
#323=ORIENTED_EDGE('',*,*,#219,.T.);
#324=CYLINDRICAL_SURFACE('',#371,0.25);
#325=CYLINDRICAL_SURFACE('',#374,0.25);
#326=CYLINDRICAL_SURFACE('',#377,0.25);
#327=CYLINDRICAL_SURFACE('',#380,0.25);
#328=CYLINDRICAL_SURFACE('',#383,0.15625);
#329=CYLINDRICAL_SURFACE('',#386,0.15625);
#330=CYLINDRICAL_SURFACE('',#389,0.15625);
#331=CYLINDRICAL_SURFACE('',#392,0.15625);
#332=STYLED_ITEM('',(#614),#351);
#333=STYLED_ITEM('',(#614),#352);
#334=STYLED_ITEM('',(#614),#353);
#335=STYLED_ITEM('',(#614),#354);
#336=STYLED_ITEM('',(#614),#355);
#337=STYLED_ITEM('',(#614),#356);
#338=STYLED_ITEM('',(#614),#357);
#339=STYLED_ITEM('',(#614),#358);
#340=STYLED_ITEM('',(#614),#359);
#341=STYLED_ITEM('',(#614),#360);
#342=STYLED_ITEM('',(#614),#361);
#343=STYLED_ITEM('',(#614),#362);
#344=STYLED_ITEM('',(#614),#363);
#345=STYLED_ITEM('',(#614),#364);
#346=STYLED_ITEM('',(#614),#365);
#347=STYLED_ITEM('',(#614),#366);
#348=STYLED_ITEM('',(#614),#367);
#349=STYLED_ITEM('',(#614),#368);
#350=STYLED_ITEM('',(#614),#13);
#351=ADVANCED_FACE('',(#96,#72),#324,.F.);
#352=ADVANCED_FACE('',(#97,#73),#325,.F.);
#353=ADVANCED_FACE('',(#98,#74),#326,.F.);
#354=ADVANCED_FACE('',(#99,#75),#327,.F.);
#355=ADVANCED_FACE('',(#100,#76),#328,.F.);
#356=ADVANCED_FACE('',(#101,#77),#329,.F.);
#357=ADVANCED_FACE('',(#102,#78),#330,.F.);
#358=ADVANCED_FACE('',(#103,#79),#331,.F.);
#359=ADVANCED_FACE('',(#104),#62,.T.);
#360=ADVANCED_FACE('',(#105),#63,.T.);
#361=ADVANCED_FACE('',(#106,#80,#81,#82,#83,#84,#85,#86,#87),#64,.F.);
#362=ADVANCED_FACE('',(#107),#65,.T.);
#363=ADVANCED_FACE('',(#108),#66,.T.);
#364=ADVANCED_FACE('',(#109),#67,.T.);
#365=ADVANCED_FACE('',(#110),#68,.T.);
#366=ADVANCED_FACE('',(#111),#69,.T.);
#367=ADVANCED_FACE('',(#112),#70,.T.);
#368=ADVANCED_FACE('',(#113,#88,#89,#90,#91,#92,#93,#94,#95),#71,.T.);
#369=CLOSED_SHELL('',(#351,#352,#353,#354,#355,#356,#357,#358,#359,#360,
#361,#362,#363,#364,#365,#366,#367,#368));
#370=AXIS2_PLACEMENT_3D('placement',#499,#405,#406);
#371=AXIS2_PLACEMENT_3D('',#500,#407,#408);
#372=AXIS2_PLACEMENT_3D('',#502,#409,#410);
#373=AXIS2_PLACEMENT_3D('',#504,#411,#412);
#374=AXIS2_PLACEMENT_3D('',#505,#413,#414);
#375=AXIS2_PLACEMENT_3D('',#507,#415,#416);
#376=AXIS2_PLACEMENT_3D('',#509,#417,#418);
#377=AXIS2_PLACEMENT_3D('',#510,#419,#420);
#378=AXIS2_PLACEMENT_3D('',#512,#421,#422);
#379=AXIS2_PLACEMENT_3D('',#514,#423,#424);
#380=AXIS2_PLACEMENT_3D('',#515,#425,#426);
#381=AXIS2_PLACEMENT_3D('',#517,#427,#428);
#382=AXIS2_PLACEMENT_3D('',#519,#429,#430);
#383=AXIS2_PLACEMENT_3D('',#520,#431,#432);
#384=AXIS2_PLACEMENT_3D('',#522,#433,#434);
#385=AXIS2_PLACEMENT_3D('',#524,#435,#436);
#386=AXIS2_PLACEMENT_3D('',#525,#437,#438);
#387=AXIS2_PLACEMENT_3D('',#527,#439,#440);
#388=AXIS2_PLACEMENT_3D('',#529,#441,#442);
#389=AXIS2_PLACEMENT_3D('',#530,#443,#444);
#390=AXIS2_PLACEMENT_3D('',#532,#445,#446);
#391=AXIS2_PLACEMENT_3D('',#534,#447,#448);
#392=AXIS2_PLACEMENT_3D('',#535,#449,#450);
#393=AXIS2_PLACEMENT_3D('',#537,#451,#452);
#394=AXIS2_PLACEMENT_3D('',#539,#453,#454);
#395=AXIS2_PLACEMENT_3D('',#540,#455,#456);
#396=AXIS2_PLACEMENT_3D('',#549,#461,#462);
#397=AXIS2_PLACEMENT_3D('',#555,#466,#467);
#398=AXIS2_PLACEMENT_3D('',#567,#474,#475);
#399=AXIS2_PLACEMENT_3D('',#571,#478,#479);
#400=AXIS2_PLACEMENT_3D('',#575,#482,#483);
#401=AXIS2_PLACEMENT_3D('',#579,#486,#487);
#402=AXIS2_PLACEMENT_3D('',#583,#490,#491);
#403=AXIS2_PLACEMENT_3D('',#587,#494,#495);
#404=AXIS2_PLACEMENT_3D('',#589,#497,#498);
#405=DIRECTION('axis',(0.,0.,1.));
#406=DIRECTION('refdir',(1.,0.,0.));
#407=DIRECTION('center_axis',(0.,0.,-1.));
#408=DIRECTION('ref_axis',(-1.,0.,0.));
#409=DIRECTION('center_axis',(0.,0.,1.));
#410=DIRECTION('ref_axis',(-1.,0.,0.));
#411=DIRECTION('center_axis',(0.,0.,-1.));
#412=DIRECTION('ref_axis',(-1.,0.,0.));
#413=DIRECTION('center_axis',(0.,0.,-1.));
#414=DIRECTION('ref_axis',(-1.,0.,0.));
#415=DIRECTION('center_axis',(0.,0.,1.));
#416=DIRECTION('ref_axis',(-1.,0.,0.));
#417=DIRECTION('center_axis',(0.,0.,-1.));
#418=DIRECTION('ref_axis',(-1.,0.,0.));
#419=DIRECTION('center_axis',(0.,0.,-1.));
#420=DIRECTION('ref_axis',(-1.,0.,0.));
#421=DIRECTION('center_axis',(0.,0.,1.));
#422=DIRECTION('ref_axis',(-1.,0.,0.));
#423=DIRECTION('center_axis',(0.,0.,-1.));
#424=DIRECTION('ref_axis',(-1.,0.,0.));
#425=DIRECTION('center_axis',(0.,0.,-1.));
#426=DIRECTION('ref_axis',(-1.,0.,0.));
#427=DIRECTION('center_axis',(0.,0.,1.));
#428=DIRECTION('ref_axis',(-1.,0.,0.));
#429=DIRECTION('center_axis',(0.,0.,-1.));
#430=DIRECTION('ref_axis',(-1.,0.,0.));
#431=DIRECTION('center_axis',(0.,0.,-1.));
#432=DIRECTION('ref_axis',(-1.,0.,0.));
#433=DIRECTION('center_axis',(0.,0.,1.));
#434=DIRECTION('ref_axis',(-1.,0.,0.));
#435=DIRECTION('center_axis',(0.,0.,-1.));
#436=DIRECTION('ref_axis',(-1.,0.,0.));
#437=DIRECTION('center_axis',(0.,0.,-1.));
#438=DIRECTION('ref_axis',(-1.,0.,0.));
#439=DIRECTION('center_axis',(0.,0.,1.));
#440=DIRECTION('ref_axis',(-1.,0.,0.));
#441=DIRECTION('center_axis',(0.,0.,-1.));
#442=DIRECTION('ref_axis',(-1.,0.,0.));
#443=DIRECTION('center_axis',(0.,0.,-1.));
#444=DIRECTION('ref_axis',(-1.,0.,0.));
#445=DIRECTION('center_axis',(0.,0.,1.));
#446=DIRECTION('ref_axis',(-1.,0.,0.));
#447=DIRECTION('center_axis',(0.,0.,-1.));
#448=DIRECTION('ref_axis',(-1.,0.,0.));
#449=DIRECTION('center_axis',(0.,0.,-1.));
#450=DIRECTION('ref_axis',(-1.,0.,0.));
#451=DIRECTION('center_axis',(0.,0.,1.));
#452=DIRECTION('ref_axis',(-1.,0.,0.));
#453=DIRECTION('center_axis',(0.,0.,-1.));
#454=DIRECTION('ref_axis',(-1.,0.,0.));
#455=DIRECTION('center_axis',(-0.707106781186549,0.707106781186547,0.));
#456=DIRECTION('ref_axis',(0.,0.,1.));
#457=DIRECTION('',(0.707106781186546,0.707106781186548,0.));
#458=DIRECTION('',(0.,0.,-1.));
#459=DIRECTION('',(-0.707106781186546,-0.707106781186548,0.));
#460=DIRECTION('',(0.,0.,1.));
#461=DIRECTION('center_axis',(-1.,-3.06161699786838E-16,0.));
#462=DIRECTION('ref_axis',(0.,0.,1.));
#463=DIRECTION('',(3.06161699786838E-16,-1.,0.));
#464=DIRECTION('',(0.,0.,-1.));
#465=DIRECTION('',(-3.06161699786838E-16,1.,0.));
#466=DIRECTION('center_axis',(0.,0.,1.));
#467=DIRECTION('ref_axis',(1.,0.,0.));
#468=DIRECTION('',(-1.,-3.94001738804536E-16,0.));
#469=DIRECTION('',(-0.707106781186548,0.707106781186548,0.));
#470=DIRECTION('',(-1.97000869402268E-16,1.,0.));
#471=DIRECTION('',(0.707106781186547,0.707106781186548,0.));
#472=DIRECTION('',(1.,0.,0.));
#473=DIRECTION('',(0.707106781186548,-0.707106781186547,0.));
#474=DIRECTION('center_axis',(-0.707106781186547,-0.707106781186548,0.));
#475=DIRECTION('ref_axis',(0.,0.,1.));
#476=DIRECTION('',(-0.707106781186548,0.707106781186547,0.));
#477=DIRECTION('',(0.,0.,1.));
#478=DIRECTION('center_axis',(0.,-1.,0.));
#479=DIRECTION('ref_axis',(0.,0.,-1.));
#480=DIRECTION('',(0.,0.,-1.));
#481=DIRECTION('',(-1.,0.,0.));
#482=DIRECTION('center_axis',(0.707106781186548,-0.707106781186547,0.));
#483=DIRECTION('ref_axis',(0.,0.,-1.));
#484=DIRECTION('',(-0.707106781186547,-0.707106781186548,0.));
#485=DIRECTION('',(0.,0.,1.));
#486=DIRECTION('center_axis',(1.,1.97000869402268E-16,0.));
#487=DIRECTION('ref_axis',(0.,0.,-1.));
#488=DIRECTION('',(0.,0.,-1.));
#489=DIRECTION('',(1.97000869402268E-16,-1.,0.));
#490=DIRECTION('center_axis',(0.707106781186548,0.707106781186548,0.));
#491=DIRECTION('ref_axis',(0.,0.,-1.));
#492=DIRECTION('',(0.707106781186548,-0.707106781186548,0.));
#493=DIRECTION('',(0.,0.,1.));
#494=DIRECTION('center_axis',(-3.94001738804536E-16,1.,0.));
#495=DIRECTION('ref_axis',(0.,0.,1.));
#496=DIRECTION('',(1.,3.94001738804536E-16,0.));
#497=DIRECTION('center_axis',(0.,0.,1.));
#498=DIRECTION('ref_axis',(1.,0.,0.));
#499=CARTESIAN_POINT('',(0.,0.,0.));
#500=CARTESIAN_POINT('Origin',(13.68,13.68,0.09375));
#501=CARTESIAN_POINT('',(13.93,13.68,0.));
#502=CARTESIAN_POINT('Origin',(13.68,13.68,0.));
#503=CARTESIAN_POINT('',(13.93,13.68,0.09375));
#504=CARTESIAN_POINT('Origin',(13.68,13.68,0.09375));
#505=CARTESIAN_POINT('Origin',(0.52,13.68,0.09375));
#506=CARTESIAN_POINT('',(0.77,13.68,0.));
#507=CARTESIAN_POINT('Origin',(0.52,13.68,0.));
#508=CARTESIAN_POINT('',(0.77,13.68,0.09375));
#509=CARTESIAN_POINT('Origin',(0.52,13.68,0.09375));
#510=CARTESIAN_POINT('Origin',(0.52,0.52,0.09375));
#511=CARTESIAN_POINT('',(0.77,0.52,0.));
#512=CARTESIAN_POINT('Origin',(0.52,0.52,0.));
#513=CARTESIAN_POINT('',(0.77,0.52,0.09375));
#514=CARTESIAN_POINT('Origin',(0.52,0.52,0.09375));
#515=CARTESIAN_POINT('Origin',(13.68,0.52,0.09375));
#516=CARTESIAN_POINT('',(13.93,0.52,0.));
#517=CARTESIAN_POINT('Origin',(13.68,0.52,0.));
#518=CARTESIAN_POINT('',(13.93,0.52,0.09375));
#519=CARTESIAN_POINT('Origin',(13.68,0.52,0.09375));
#520=CARTESIAN_POINT('Origin',(13.68,12.93,0.09375));
#521=CARTESIAN_POINT('',(13.83625,12.93,0.));
#522=CARTESIAN_POINT('Origin',(13.68,12.93,0.));
#523=CARTESIAN_POINT('',(13.83625,12.93,0.09375));
#524=CARTESIAN_POINT('Origin',(13.68,12.93,0.09375));
#525=CARTESIAN_POINT('Origin',(0.52,12.93,0.09375));
#526=CARTESIAN_POINT('',(0.67625,12.93,0.));
#527=CARTESIAN_POINT('Origin',(0.52,12.93,0.));
#528=CARTESIAN_POINT('',(0.67625,12.93,0.09375));
#529=CARTESIAN_POINT('Origin',(0.52,12.93,0.09375));
#530=CARTESIAN_POINT('Origin',(0.519999999999999,1.27,0.09375));
#531=CARTESIAN_POINT('',(0.676249999999999,1.27,0.));
#532=CARTESIAN_POINT('Origin',(0.519999999999999,1.27,0.));
#533=CARTESIAN_POINT('',(0.676249999999999,1.27,0.09375));
#534=CARTESIAN_POINT('Origin',(0.519999999999999,1.27,0.09375));
#535=CARTESIAN_POINT('Origin',(13.68,1.27,0.09375));
#536=CARTESIAN_POINT('',(13.83625,1.27,0.));
#537=CARTESIAN_POINT('Origin',(13.68,1.27,0.));
#538=CARTESIAN_POINT('',(13.83625,1.27,0.09375));
#539=CARTESIAN_POINT('Origin',(13.68,1.27,0.09375));
#540=CARTESIAN_POINT('Origin',(0.249999999999996,13.95,0.));
#541=CARTESIAN_POINT('',(-4.19441528707968E-15,13.7,0.09375));
#542=CARTESIAN_POINT('',(0.499999999999996,14.2,0.09375));
#543=CARTESIAN_POINT('',(0.249999999999994,13.95,0.09375));
#544=CARTESIAN_POINT('',(0.499999999999996,14.2,0.));
#545=CARTESIAN_POINT('',(0.499999999999996,14.2,0.));
#546=CARTESIAN_POINT('',(-4.19441528707968E-15,13.7,0.));
#547=CARTESIAN_POINT('',(0.249999999999994,13.95,0.));
#548=CARTESIAN_POINT('',(-4.19611851826831E-15,13.7,0.));
#549=CARTESIAN_POINT('Origin',(0.,0.,0.));
#550=CARTESIAN_POINT('',(-1.5308084989342E-16,0.500000000000001,0.));
#551=CARTESIAN_POINT('',(-4.3474961369731E-15,14.2,0.));
#552=CARTESIAN_POINT('',(-1.5308084989342E-16,0.500000000000001,0.09375));
#553=CARTESIAN_POINT('',(-1.74838271594513E-16,0.5,0.));
#554=CARTESIAN_POINT('',(-4.3474961369731E-15,14.2,0.09375));
#555=CARTESIAN_POINT('Origin',(7.1,7.1,0.));
#556=CARTESIAN_POINT('',(13.7,14.2,0.));
#557=CARTESIAN_POINT('',(14.2,14.2,0.));
#558=CARTESIAN_POINT('',(14.2,13.7,0.));
#559=CARTESIAN_POINT('',(13.95,13.95,0.));
#560=CARTESIAN_POINT('',(14.2,0.500000000000001,0.));
#561=CARTESIAN_POINT('',(14.2,0.,0.));
#562=CARTESIAN_POINT('',(13.7,0.,0.));
#563=CARTESIAN_POINT('',(13.95,0.250000000000001,0.));
#564=CARTESIAN_POINT('',(0.500000000000001,0.,0.));
#565=CARTESIAN_POINT('',(0.,0.,0.));
#566=CARTESIAN_POINT('',(0.250000000000004,0.249999999999997,0.));
#567=CARTESIAN_POINT('Origin',(0.25,0.25,0.));
#568=CARTESIAN_POINT('',(0.500000000000001,0.,0.09375));
#569=CARTESIAN_POINT('',(0.250000000000005,0.249999999999997,0.09375));
#570=CARTESIAN_POINT('',(0.500000000000001,0.,0.));
#571=CARTESIAN_POINT('Origin',(14.2,0.,0.));
#572=CARTESIAN_POINT('',(13.7,0.,0.09375));
#573=CARTESIAN_POINT('',(13.7,0.,0.));
#574=CARTESIAN_POINT('',(0.,0.,0.09375));
#575=CARTESIAN_POINT('Origin',(13.95,0.250000000000001,0.));
#576=CARTESIAN_POINT('',(14.2,0.500000000000001,0.09375));
#577=CARTESIAN_POINT('',(13.95,0.250000000000002,0.09375));
#578=CARTESIAN_POINT('',(14.2,0.500000000000001,0.));
#579=CARTESIAN_POINT('Origin',(14.2,14.2,0.));
#580=CARTESIAN_POINT('',(14.2,13.7,0.09375));
#581=CARTESIAN_POINT('',(14.2,13.7,0.));
#582=CARTESIAN_POINT('',(14.2,0.,0.09375));
#583=CARTESIAN_POINT('Origin',(13.95,13.95,0.));
#584=CARTESIAN_POINT('',(13.7,14.2,0.09375));
#585=CARTESIAN_POINT('',(13.95,13.95,0.09375));
#586=CARTESIAN_POINT('',(13.7,14.2,0.));
#587=CARTESIAN_POINT('Origin',(-4.3474961369731E-15,14.2,0.));
#588=CARTESIAN_POINT('',(14.2,14.2,0.09375));
#589=CARTESIAN_POINT('Origin',(7.1,7.1,0.09375));
#590=UNCERTAINTY_MEASURE_WITH_UNIT(LENGTH_MEASURE(0.000393700787401575),
#594,'DISTANCE_ACCURACY_VALUE',
'Maximum model space distance between geometric entities at asserted c
onnectivities');
#591=UNCERTAINTY_MEASURE_WITH_UNIT(LENGTH_MEASURE(1.E-6),#595,
'DISTANCE_ACCURACY_VALUE',
'Maximum model space distance between geometric entities at asserted c
onnectivities');
#592=(
GEOMETRIC_REPRESENTATION_CONTEXT(3)
GLOBAL_UNCERTAINTY_ASSIGNED_CONTEXT((#590))
GLOBAL_UNIT_ASSIGNED_CONTEXT((#594,#600,#597))
REPRESENTATION_CONTEXT('','3D')
);
#593=(
GEOMETRIC_REPRESENTATION_CONTEXT(3)
GLOBAL_UNCERTAINTY_ASSIGNED_CONTEXT((#591))
GLOBAL_UNIT_ASSIGNED_CONTEXT((#595,#600,#597))
REPRESENTATION_CONTEXT('','3D')
);
#594=(
CONVERSION_BASED_UNIT('__CONSTANT UNIT inch',#596)
LENGTH_UNIT()
NAMED_UNIT(#599)
);
#595=(
LENGTH_UNIT()
NAMED_UNIT(*)
SI_UNIT(.MILLI.,.METRE.)
);
#596=LENGTH_MEASURE_WITH_UNIT(LENGTH_MEASURE(25.4),#595);
#597=(
NAMED_UNIT(*)
SI_UNIT($,.STERADIAN.)
SOLID_ANGLE_UNIT()
);
#598=DIMENSIONAL_EXPONENTS(0.,0.,0.,0.,0.,0.,0.);
#599=DIMENSIONAL_EXPONENTS(1.,0.,0.,0.,0.,0.,0.);
#600=(
CONVERSION_BASED_UNIT('degree',#602)
NAMED_UNIT(#598)
PLANE_ANGLE_UNIT()
);
#601=(
NAMED_UNIT(*)
PLANE_ANGLE_UNIT()
SI_UNIT($,.RADIAN.)
);
#602=PLANE_ANGLE_MEASURE_WITH_UNIT(PLANE_ANGLE_MEASURE(0.01745329252),#601);
#603=SHAPE_DEFINITION_REPRESENTATION(#604,#605);
#604=PRODUCT_DEFINITION_SHAPE('',$,#607);
#605=SHAPE_REPRESENTATION('',(#370),#592);
#606=PRODUCT_DEFINITION_CONTEXT('part definition',#611,'design');
#607=PRODUCT_DEFINITION('NP1616CPP','NP1616CPP',#608,#606);
#608=PRODUCT_DEFINITION_FORMATION('',$,#613);
#609=PRODUCT_RELATED_PRODUCT_CATEGORY('NP1616CPP','NP1616CPP',(#613));
#610=APPLICATION_PROTOCOL_DEFINITION('international standard',
'automotive_design',2009,#611);
#611=APPLICATION_CONTEXT(
'Core Data for Automotive Mechanical Design Process');
#612=PRODUCT_CONTEXT('part definition',#611,'mechanical');
#613=PRODUCT('NP1616CPP','NP1616CPP',$,(#612));
#614=PRESENTATION_STYLE_ASSIGNMENT((#615));
#615=SURFACE_STYLE_USAGE(.BOTH.,#616);
#616=SURFACE_SIDE_STYLE('',(#617));
#617=SURFACE_STYLE_FILL_AREA(#618);
#618=FILL_AREA_STYLE('',(#619));
#619=FILL_AREA_STYLE_COLOUR('',#620);
#620=COLOUR_RGB('',0.63921568627451,0.63921568627451,0.686274509803922);
ENDSEC;
END-ISO-10303-21;
