ISO-10303-21;
HEADER;
/****************************************************************
 * Generated by software with PDElib inside                    *
 * PDElib Version v51a, created Tue 11/30/2010                  *
 * ITI Transcendata (http://www.transcendata.com/)              *
 ****************************************************************/
FILE_DESCRIPTION((''),'2;1');
FILE_NAME('C:\\W-Projects\\Fielder\\NP-C\\NPSSC STP-DXF\\NP2016SSC.ipt.stp','2011-11-16T13:27:46',(''),(''),'Autodesk Inventor 2012','Autodesk Inventor 2012','');
FILE_SCHEMA(('AUTOMOTIVE_DESIGN { 1 0 10303 214 1 1 1 1 }'));
ENDSEC;
DATA;
#5=APPLICATION_CONTEXT('automotive design');
#6=APPLICATION_PROTOCOL_DEFINITION('International Standard','automotive_design',2001,#5);
#7=PRODUCT_CONTEXT('',#5,'mechanical');
#8=PRODUCT('NP2016SSC','NP2016SSC',$,(#7));
#9=PRODUCT_RELATED_PRODUCT_CATEGORY('part',$,(#8));
#10=PRODUCT_DEFINITION_FORMATION('',$,#8);
#11=PRODUCT_DEFINITION_CONTEXT('part definition',#5,'design');
#12=PRODUCT_DEFINITION('',$,#10,#11);
#18=(NAMED_UNIT(*)PLANE_ANGLE_UNIT()SI_UNIT($,.RADIAN.));
#19=DIMENSIONAL_EXPONENTS(0.0,0.0,0.0,0.0,0.0,0.0,0.0);
#20=PLANE_ANGLE_MEASURE_WITH_UNIT(PLANE_ANGLE_MEASURE(0.0174532925),#18);
#24=(CONVERSION_BASED_UNIT('DEGREE',#20)NAMED_UNIT(#19)PLANE_ANGLE_UNIT());
#28=(NAMED_UNIT(*)SI_UNIT($,.STERADIAN.)SOLID_ANGLE_UNIT());
#32=(LENGTH_UNIT()NAMED_UNIT(*)SI_UNIT(.CENTI.,.METRE.));
#33=DIMENSIONAL_EXPONENTS(1.0,0.0,0.0,0.0,0.0,0.0,0.0);
#34=LENGTH_MEASURE_WITH_UNIT(LENGTH_MEASURE(2.54),#32);
#38=(CONVERSION_BASED_UNIT('INCH',#34)LENGTH_UNIT()NAMED_UNIT(#33));
#40=UNCERTAINTY_MEASURE_WITH_UNIT(LENGTH_MEASURE(0.000393700787402),#38,'DISTANCE_ACCURACY_VALUE','');
#42=(GEOMETRIC_REPRESENTATION_CONTEXT(3)GLOBAL_UNCERTAINTY_ASSIGNED_CONTEXT((#40))GLOBAL_UNIT_ASSIGNED_CONTEXT((#24,#28,#38))REPRESENTATION_CONTEXT('None','None'));
#43=AXIS2_PLACEMENT_3D('',#44,#45,#46);
#44=CARTESIAN_POINT('',(0.0,0.0,0.0));
#45=DIRECTION('',(0.0,0.0,1.0));
#46=DIRECTION('',(1.0,0.0,0.0));
#47=SHAPE_REPRESENTATION('',(#43),#42);
#48=PRODUCT_DEFINITION_SHAPE('','',#12);
#49=SHAPE_DEFINITION_REPRESENTATION(#48,#47);
#55=(NAMED_UNIT(*)PLANE_ANGLE_UNIT()SI_UNIT($,.RADIAN.));
#56=DIMENSIONAL_EXPONENTS(0.0,0.0,0.0,0.0,0.0,0.0,0.0);
#57=PLANE_ANGLE_MEASURE_WITH_UNIT(PLANE_ANGLE_MEASURE(0.0174532925),#55);
#61=(CONVERSION_BASED_UNIT('DEGREE',#57)NAMED_UNIT(#56)PLANE_ANGLE_UNIT());
#65=(NAMED_UNIT(*)SI_UNIT($,.STERADIAN.)SOLID_ANGLE_UNIT());
#69=(LENGTH_UNIT()NAMED_UNIT(*)SI_UNIT(.MILLI.,.METRE.));
#71=UNCERTAINTY_MEASURE_WITH_UNIT(LENGTH_MEASURE(0.000001),#69,'DISTANCE_ACCURACY_VALUE','');
#73=(GEOMETRIC_REPRESENTATION_CONTEXT(3)GLOBAL_UNCERTAINTY_ASSIGNED_CONTEXT((#71))GLOBAL_UNIT_ASSIGNED_CONTEXT((#61,#65,#69))REPRESENTATION_CONTEXT('','3D'));
#74=CARTESIAN_POINT('',(13.680000000000003,17.680000000000003,0.09375));
#75=DIRECTION('',(0.0,0.0,-1.0));
#76=DIRECTION('',(-1.0,0.0,0.0));
#77=AXIS2_PLACEMENT_3D('',#74,#75,#76);
#78=CYLINDRICAL_SURFACE('',#77,0.25);
#79=CARTESIAN_POINT('',(13.930000000000003,17.680000000000003,0.0));
#80=VERTEX_POINT('',#79);
#81=CARTESIAN_POINT('',(13.680000000000003,17.680000000000003,0.0));
#82=DIRECTION('',(0.0,0.0,1.0));
#83=DIRECTION('',(-1.0,0.0,0.0));
#84=AXIS2_PLACEMENT_3D('',#81,#82,#83);
#85=CIRCLE('',#84,0.25);
#86=EDGE_CURVE('',#80,#80,#85,.T.);
#87=ORIENTED_EDGE('',*,*,#86,.F.);
#88=EDGE_LOOP('',(#87));
#89=FACE_OUTER_BOUND('',#88,.T.);
#90=CARTESIAN_POINT('',(13.930000000000003,17.680000000000003,0.09375));
#91=VERTEX_POINT('',#90);
#92=CARTESIAN_POINT('',(13.680000000000003,17.680000000000003,0.09375));
#93=DIRECTION('',(0.0,0.0,-1.0));
#94=DIRECTION('',(-1.0,0.0,0.0));
#95=AXIS2_PLACEMENT_3D('',#92,#93,#94);
#96=CIRCLE('',#95,0.25);
#97=EDGE_CURVE('',#91,#91,#96,.T.);
#98=ORIENTED_EDGE('',*,*,#97,.F.);
#99=EDGE_LOOP('',(#98));
#100=FACE_BOUND('',#99,.T.);
#101=ADVANCED_FACE('',(#89,#100),#78,.F.);
#102=CARTESIAN_POINT('',(0.52,17.68,0.09375));
#103=DIRECTION('',(0.0,0.0,-1.0));
#104=DIRECTION('',(-1.0,0.0,0.0));
#105=AXIS2_PLACEMENT_3D('',#102,#103,#104);
#106=CYLINDRICAL_SURFACE('',#105,0.25);
#107=CARTESIAN_POINT('',(0.77,17.68,0.0));
#108=VERTEX_POINT('',#107);
#109=CARTESIAN_POINT('',(0.52,17.68,0.0));
#110=DIRECTION('',(0.0,0.0,1.0));
#111=DIRECTION('',(-1.0,0.0,0.0));
#112=AXIS2_PLACEMENT_3D('',#109,#110,#111);
#113=CIRCLE('',#112,0.25);
#114=EDGE_CURVE('',#108,#108,#113,.T.);
#115=ORIENTED_EDGE('',*,*,#114,.F.);
#116=EDGE_LOOP('',(#115));
#117=FACE_OUTER_BOUND('',#116,.T.);
#118=CARTESIAN_POINT('',(0.77,17.68,0.09375));
#119=VERTEX_POINT('',#118);
#120=CARTESIAN_POINT('',(0.52,17.68,0.09375));
#121=DIRECTION('',(0.0,0.0,-1.0));
#122=DIRECTION('',(-1.0,0.0,0.0));
#123=AXIS2_PLACEMENT_3D('',#120,#121,#122);
#124=CIRCLE('',#123,0.25);
#125=EDGE_CURVE('',#119,#119,#124,.T.);
#126=ORIENTED_EDGE('',*,*,#125,.F.);
#127=EDGE_LOOP('',(#126));
#128=FACE_BOUND('',#127,.T.);
#129=ADVANCED_FACE('',(#117,#128),#106,.F.);
#130=CARTESIAN_POINT('',(0.52,0.52,0.09375));
#131=DIRECTION('',(0.0,0.0,-1.0));
#132=DIRECTION('',(-1.0,0.0,0.0));
#133=AXIS2_PLACEMENT_3D('',#130,#131,#132);
#134=CYLINDRICAL_SURFACE('',#133,0.25);
#135=CARTESIAN_POINT('',(0.77,0.52,0.0));
#136=VERTEX_POINT('',#135);
#137=CARTESIAN_POINT('',(0.52,0.52,0.0));
#138=DIRECTION('',(0.0,0.0,1.0));
#139=DIRECTION('',(-1.0,0.0,0.0));
#140=AXIS2_PLACEMENT_3D('',#137,#138,#139);
#141=CIRCLE('',#140,0.25);
#142=EDGE_CURVE('',#136,#136,#141,.T.);
#143=ORIENTED_EDGE('',*,*,#142,.F.);
#144=EDGE_LOOP('',(#143));
#145=FACE_OUTER_BOUND('',#144,.T.);
#146=CARTESIAN_POINT('',(0.77,0.52,0.09375));
#147=VERTEX_POINT('',#146);
#148=CARTESIAN_POINT('',(0.52,0.52,0.09375));
#149=DIRECTION('',(0.0,0.0,-1.0));
#150=DIRECTION('',(-1.0,0.0,0.0));
#151=AXIS2_PLACEMENT_3D('',#148,#149,#150);
#152=CIRCLE('',#151,0.25);
#153=EDGE_CURVE('',#147,#147,#152,.T.);
#154=ORIENTED_EDGE('',*,*,#153,.F.);
#155=EDGE_LOOP('',(#154));
#156=FACE_BOUND('',#155,.T.);
#157=ADVANCED_FACE('',(#145,#156),#134,.F.);
#158=CARTESIAN_POINT('',(13.680000000000003,0.519999999999999,0.09375));
#159=DIRECTION('',(0.0,0.0,-1.0));
#160=DIRECTION('',(-1.0,0.0,0.0));
#161=AXIS2_PLACEMENT_3D('',#158,#159,#160);
#162=CYLINDRICAL_SURFACE('',#161,0.25);
#163=CARTESIAN_POINT('',(13.930000000000003,0.519999999999999,0.0));
#164=VERTEX_POINT('',#163);
#165=CARTESIAN_POINT('',(13.680000000000003,0.519999999999999,0.0));
#166=DIRECTION('',(0.0,0.0,1.0));
#167=DIRECTION('',(-1.0,0.0,0.0));
#168=AXIS2_PLACEMENT_3D('',#165,#166,#167);
#169=CIRCLE('',#168,0.25);
#170=EDGE_CURVE('',#164,#164,#169,.T.);
#171=ORIENTED_EDGE('',*,*,#170,.F.);
#172=EDGE_LOOP('',(#171));
#173=FACE_OUTER_BOUND('',#172,.T.);
#174=CARTESIAN_POINT('',(13.930000000000003,0.519999999999999,0.09375));
#175=VERTEX_POINT('',#174);
#176=CARTESIAN_POINT('',(13.680000000000003,0.519999999999999,0.09375));
#177=DIRECTION('',(0.0,0.0,-1.0));
#178=DIRECTION('',(-1.0,0.0,0.0));
#179=AXIS2_PLACEMENT_3D('',#176,#177,#178);
#180=CIRCLE('',#179,0.25);
#181=EDGE_CURVE('',#175,#175,#180,.T.);
#182=ORIENTED_EDGE('',*,*,#181,.F.);
#183=EDGE_LOOP('',(#182));
#184=FACE_BOUND('',#183,.T.);
#185=ADVANCED_FACE('',(#173,#184),#162,.F.);
#186=CARTESIAN_POINT('',(13.680000000000003,16.930000000000003,0.09375));
#187=DIRECTION('',(0.0,0.0,-1.0));
#188=DIRECTION('',(-1.0,0.0,0.0));
#189=AXIS2_PLACEMENT_3D('',#186,#187,#188);
#190=CYLINDRICAL_SURFACE('',#189,0.15625);
#191=CARTESIAN_POINT('',(13.836250000000003,16.930000000000003,0.0));
#192=VERTEX_POINT('',#191);
#193=CARTESIAN_POINT('',(13.680000000000003,16.930000000000003,0.0));
#194=DIRECTION('',(0.0,0.0,1.0));
#195=DIRECTION('',(-1.0,0.0,0.0));
#196=AXIS2_PLACEMENT_3D('',#193,#194,#195);
#197=CIRCLE('',#196,0.15625);
#198=EDGE_CURVE('',#192,#192,#197,.T.);
#199=ORIENTED_EDGE('',*,*,#198,.F.);
#200=EDGE_LOOP('',(#199));
#201=FACE_OUTER_BOUND('',#200,.T.);
#202=CARTESIAN_POINT('',(13.836250000000003,16.930000000000003,0.09375));
#203=VERTEX_POINT('',#202);
#204=CARTESIAN_POINT('',(13.680000000000003,16.930000000000003,0.09375));
#205=DIRECTION('',(0.0,0.0,-1.0));
#206=DIRECTION('',(-1.0,0.0,0.0));
#207=AXIS2_PLACEMENT_3D('',#204,#205,#206);
#208=CIRCLE('',#207,0.15625);
#209=EDGE_CURVE('',#203,#203,#208,.T.);
#210=ORIENTED_EDGE('',*,*,#209,.F.);
#211=EDGE_LOOP('',(#210));
#212=FACE_BOUND('',#211,.T.);
#213=ADVANCED_FACE('',(#201,#212),#190,.F.);
#214=CARTESIAN_POINT('',(0.52,16.93,0.09375));
#215=DIRECTION('',(0.0,0.0,-1.0));
#216=DIRECTION('',(-1.0,0.0,0.0));
#217=AXIS2_PLACEMENT_3D('',#214,#215,#216);
#218=CYLINDRICAL_SURFACE('',#217,0.15625);
#219=CARTESIAN_POINT('',(0.67625,16.93,0.0));
#220=VERTEX_POINT('',#219);
#221=CARTESIAN_POINT('',(0.52,16.93,0.0));
#222=DIRECTION('',(0.0,0.0,1.0));
#223=DIRECTION('',(-1.0,0.0,0.0));
#224=AXIS2_PLACEMENT_3D('',#221,#222,#223);
#225=CIRCLE('',#224,0.15625);
#226=EDGE_CURVE('',#220,#220,#225,.T.);
#227=ORIENTED_EDGE('',*,*,#226,.F.);
#228=EDGE_LOOP('',(#227));
#229=FACE_OUTER_BOUND('',#228,.T.);
#230=CARTESIAN_POINT('',(0.67625,16.93,0.09375));
#231=VERTEX_POINT('',#230);
#232=CARTESIAN_POINT('',(0.52,16.93,0.09375));
#233=DIRECTION('',(0.0,0.0,-1.0));
#234=DIRECTION('',(-1.0,0.0,0.0));
#235=AXIS2_PLACEMENT_3D('',#232,#233,#234);
#236=CIRCLE('',#235,0.15625);
#237=EDGE_CURVE('',#231,#231,#236,.T.);
#238=ORIENTED_EDGE('',*,*,#237,.F.);
#239=EDGE_LOOP('',(#238));
#240=FACE_BOUND('',#239,.T.);
#241=ADVANCED_FACE('',(#229,#240),#218,.F.);
#242=CARTESIAN_POINT('',(0.519999999999999,1.27,0.09375));
#243=DIRECTION('',(0.0,0.0,-1.0));
#244=DIRECTION('',(-1.0,0.0,0.0));
#245=AXIS2_PLACEMENT_3D('',#242,#243,#244);
#246=CYLINDRICAL_SURFACE('',#245,0.15625);
#247=CARTESIAN_POINT('',(0.676249999999999,1.27,0.0));
#248=VERTEX_POINT('',#247);
#249=CARTESIAN_POINT('',(0.519999999999999,1.27,0.0));
#250=DIRECTION('',(0.0,0.0,1.0));
#251=DIRECTION('',(-1.0,0.0,0.0));
#252=AXIS2_PLACEMENT_3D('',#249,#250,#251);
#253=CIRCLE('',#252,0.15625);
#254=EDGE_CURVE('',#248,#248,#253,.T.);
#255=ORIENTED_EDGE('',*,*,#254,.F.);
#256=EDGE_LOOP('',(#255));
#257=FACE_OUTER_BOUND('',#256,.T.);
#258=CARTESIAN_POINT('',(0.676249999999999,1.27,0.09375));
#259=VERTEX_POINT('',#258);
#260=CARTESIAN_POINT('',(0.519999999999999,1.27,0.09375));
#261=DIRECTION('',(0.0,0.0,-1.0));
#262=DIRECTION('',(-1.0,0.0,0.0));
#263=AXIS2_PLACEMENT_3D('',#260,#261,#262);
#264=CIRCLE('',#263,0.15625);
#265=EDGE_CURVE('',#259,#259,#264,.T.);
#266=ORIENTED_EDGE('',*,*,#265,.F.);
#267=EDGE_LOOP('',(#266));
#268=FACE_BOUND('',#267,.T.);
#269=ADVANCED_FACE('',(#257,#268),#246,.F.);
#270=CARTESIAN_POINT('',(13.680000000000003,1.269999999999999,0.09375));
#271=DIRECTION('',(0.0,0.0,-1.0));
#272=DIRECTION('',(-1.0,0.0,0.0));
#273=AXIS2_PLACEMENT_3D('',#270,#271,#272);
#274=CYLINDRICAL_SURFACE('',#273,0.15625);
#275=CARTESIAN_POINT('',(13.836250000000003,1.269999999999999,0.0));
#276=VERTEX_POINT('',#275);
#277=CARTESIAN_POINT('',(13.680000000000003,1.269999999999999,0.0));
#278=DIRECTION('',(0.0,0.0,1.0));
#279=DIRECTION('',(-1.0,0.0,0.0));
#280=AXIS2_PLACEMENT_3D('',#277,#278,#279);
#281=CIRCLE('',#280,0.15625);
#282=EDGE_CURVE('',#276,#276,#281,.T.);
#283=ORIENTED_EDGE('',*,*,#282,.F.);
#284=EDGE_LOOP('',(#283));
#285=FACE_OUTER_BOUND('',#284,.T.);
#286=CARTESIAN_POINT('',(13.836250000000003,1.269999999999999,0.09375));
#287=VERTEX_POINT('',#286);
#288=CARTESIAN_POINT('',(13.680000000000003,1.269999999999999,0.09375));
#289=DIRECTION('',(0.0,0.0,-1.0));
#290=DIRECTION('',(-1.0,0.0,0.0));
#291=AXIS2_PLACEMENT_3D('',#288,#289,#290);
#292=CIRCLE('',#291,0.15625);
#293=EDGE_CURVE('',#287,#287,#292,.T.);
#294=ORIENTED_EDGE('',*,*,#293,.F.);
#295=EDGE_LOOP('',(#294));
#296=FACE_BOUND('',#295,.T.);
#297=ADVANCED_FACE('',(#285,#296),#274,.F.);
#298=CARTESIAN_POINT('',(0.249999999999995,17.949999999999996,0.0));
#299=DIRECTION('',(-0.707106781186549,0.707106781186547,0.0));
#300=DIRECTION('',(0.0,0.0,1.0));
#301=AXIS2_PLACEMENT_3D('',#298,#299,#300);
#302=PLANE('',#301);
#303=CARTESIAN_POINT('',(-5.419062E-015,17.699999999999999,0.09375));
#304=VERTEX_POINT('',#303);
#305=CARTESIAN_POINT('',(0.499999999999996,18.199999999999999,0.09375));
#306=VERTEX_POINT('',#305);
#307=CARTESIAN_POINT('',(-4.052314E-015,17.699999999999996,0.09375));
#308=DIRECTION('',(0.707106781186545,0.70710678118655,0.0));
#309=VECTOR('',#308,0.70710678118655);
#310=LINE('',#307,#309);
#311=EDGE_CURVE('',#304,#306,#310,.T.);
#312=ORIENTED_EDGE('',*,*,#311,.T.);
#313=CARTESIAN_POINT('',(0.499999999999996,18.199999999999999,0.0));
#314=VERTEX_POINT('',#313);
#315=CARTESIAN_POINT('',(0.499999999999994,18.199999999999999,0.09375));
#316=DIRECTION('',(0.0,0.0,-1.0));
#317=VECTOR('',#316,0.09375);
#318=LINE('',#315,#317);
#319=EDGE_CURVE('',#306,#314,#318,.T.);
#320=ORIENTED_EDGE('',*,*,#319,.T.);
#321=CARTESIAN_POINT('',(-5.419062E-015,17.699999999999999,0.0));
#322=VERTEX_POINT('',#321);
#323=CARTESIAN_POINT('',(0.499999999999996,18.199999999999999,0.0));
#324=DIRECTION('',(-0.707106781186545,-0.70710678118655,0.0));
#325=VECTOR('',#324,0.70710678118655);
#326=LINE('',#323,#325);
#327=EDGE_CURVE('',#314,#322,#326,.T.);
#328=ORIENTED_EDGE('',*,*,#327,.T.);
#329=CARTESIAN_POINT('',(-5.419986E-015,17.699999999999999,0.0));
#330=DIRECTION('',(0.0,0.0,1.0));
#331=VECTOR('',#330,0.09375);
#332=LINE('',#329,#331);
#333=EDGE_CURVE('',#322,#304,#332,.T.);
#334=ORIENTED_EDGE('',*,*,#333,.T.);
#335=EDGE_LOOP('',(#312,#320,#328,#334));
#336=FACE_OUTER_BOUND('',#335,.T.);
#337=ADVANCED_FACE('',(#336),#302,.T.);
#338=CARTESIAN_POINT('',(0.0,0.0,0.0));
#339=DIRECTION('',(-1.0,0.0,0.0));
#340=DIRECTION('',(0.0,0.0,1.0));
#341=AXIS2_PLACEMENT_3D('',#338,#339,#340);
#342=PLANE('',#341);
#343=ORIENTED_EDGE('',*,*,#333,.F.);
#344=CARTESIAN_POINT('',(-1.530808E-016,0.500000000000001,0.0));
#345=VERTEX_POINT('',#344);
#346=CARTESIAN_POINT('',(-5.419062E-015,17.699999999999999,0.0));
#347=DIRECTION('',(0.0,-1.0,0.0));
#348=VECTOR('',#347,17.199999999999999);
#349=LINE('',#346,#348);
#350=EDGE_CURVE('',#322,#345,#349,.T.);
#351=ORIENTED_EDGE('',*,*,#350,.T.);
#352=CARTESIAN_POINT('',(-1.530808E-016,0.500000000000001,0.09375));
#353=VERTEX_POINT('',#352);
#354=CARTESIAN_POINT('',(-1.748383E-016,0.5,0.09375));
#355=DIRECTION('',(0.0,0.0,-1.0));
#356=VECTOR('',#355,0.09375);
#357=LINE('',#354,#356);
#358=EDGE_CURVE('',#353,#345,#357,.T.);
#359=ORIENTED_EDGE('',*,*,#358,.F.);
#360=CARTESIAN_POINT('',(-1.530808E-016,0.5,0.09375));
#361=DIRECTION('',(0.0,1.0,0.0));
#362=VECTOR('',#361,17.199999999999999);
#363=LINE('',#360,#362);
#364=EDGE_CURVE('',#353,#304,#363,.T.);
#365=ORIENTED_EDGE('',*,*,#364,.T.);
#366=EDGE_LOOP('',(#343,#351,#359,#365));
#367=FACE_OUTER_BOUND('',#366,.T.);
#368=ADVANCED_FACE('',(#367),#342,.T.);
#369=CARTESIAN_POINT('',(7.099999999999997,9.1,0.0));
#370=DIRECTION('',(0.0,0.0,1.0));
#371=DIRECTION('',(1.0,0.0,0.0));
#372=AXIS2_PLACEMENT_3D('',#369,#370,#371);
#373=PLANE('',#372);
#374=ORIENTED_EDGE('',*,*,#327,.F.);
#375=CARTESIAN_POINT('',(13.699999999999999,18.200000000000003,0.0));
#376=VERTEX_POINT('',#375);
#377=CARTESIAN_POINT('',(13.699999999999998,18.200000000000003,0.0));
#378=DIRECTION('',(-1.0,0.0,0.0));
#379=VECTOR('',#378,13.200000000000003);
#380=LINE('',#377,#379);
#381=EDGE_CURVE('',#376,#314,#380,.T.);
#382=ORIENTED_EDGE('',*,*,#381,.F.);
#383=CARTESIAN_POINT('',(14.199999999999999,17.699999999999999,0.0));
#384=VERTEX_POINT('',#383);
#385=CARTESIAN_POINT('',(14.199999999999999,17.700000000000003,0.0));
#386=DIRECTION('',(-0.707106781186547,0.707106781186547,0.0));
#387=VECTOR('',#386,0.707106781186548);
#388=LINE('',#385,#387);
#389=EDGE_CURVE('',#384,#376,#388,.T.);
#390=ORIENTED_EDGE('',*,*,#389,.F.);
#391=CARTESIAN_POINT('',(14.199999999999999,0.500000000000001,0.0));
#392=VERTEX_POINT('',#391);
#393=CARTESIAN_POINT('',(14.199999999999999,0.500000000000001,0.0));
#394=DIRECTION('',(0.0,1.0,0.0));
#395=VECTOR('',#394,17.199999999999999);
#396=LINE('',#393,#395);
#397=EDGE_CURVE('',#392,#384,#396,.T.);
#398=ORIENTED_EDGE('',*,*,#397,.F.);
#399=CARTESIAN_POINT('',(13.699999999999999,0.0,0.0));
#400=VERTEX_POINT('',#399);
#401=CARTESIAN_POINT('',(13.699999999999998,9.992007E-016,0.0));
#402=DIRECTION('',(0.707106781186547,0.707106781186548,0.0));
#403=VECTOR('',#402,0.707106781186548);
#404=LINE('',#401,#403);
#405=EDGE_CURVE('',#400,#392,#404,.T.);
#406=ORIENTED_EDGE('',*,*,#405,.F.);
#407=CARTESIAN_POINT('',(0.500000000000001,0.0,0.0));
#408=VERTEX_POINT('',#407);
#409=CARTESIAN_POINT('',(0.500000000000001,0.0,0.0));
#410=DIRECTION('',(1.0,0.0,0.0));
#411=VECTOR('',#410,13.199999999999998);
#412=LINE('',#409,#411);
#413=EDGE_CURVE('',#408,#400,#412,.T.);
#414=ORIENTED_EDGE('',*,*,#413,.F.);
#415=CARTESIAN_POINT('',(-8.049117E-016,0.500000000000001,0.0));
#416=DIRECTION('',(0.707106781186548,-0.707106781186547,0.0));
#417=VECTOR('',#416,0.707106781186549);
#418=LINE('',#415,#417);
#419=EDGE_CURVE('',#345,#408,#418,.T.);
#420=ORIENTED_EDGE('',*,*,#419,.F.);
#421=ORIENTED_EDGE('',*,*,#350,.F.);
#422=EDGE_LOOP('',(#374,#382,#390,#398,#406,#414,#420,#421));
#423=FACE_OUTER_BOUND('',#422,.T.);
#424=ORIENTED_EDGE('',*,*,#86,.T.);
#425=EDGE_LOOP('',(#424));
#426=FACE_BOUND('',#425,.T.);
#427=ORIENTED_EDGE('',*,*,#114,.T.);
#428=EDGE_LOOP('',(#427));
#429=FACE_BOUND('',#428,.T.);
#430=ORIENTED_EDGE('',*,*,#142,.T.);
#431=EDGE_LOOP('',(#430));
#432=FACE_BOUND('',#431,.T.);
#433=ORIENTED_EDGE('',*,*,#170,.T.);
#434=EDGE_LOOP('',(#433));
#435=FACE_BOUND('',#434,.T.);
#436=ORIENTED_EDGE('',*,*,#198,.T.);
#437=EDGE_LOOP('',(#436));
#438=FACE_BOUND('',#437,.T.);
#439=ORIENTED_EDGE('',*,*,#226,.T.);
#440=EDGE_LOOP('',(#439));
#441=FACE_BOUND('',#440,.T.);
#442=ORIENTED_EDGE('',*,*,#254,.T.);
#443=EDGE_LOOP('',(#442));
#444=FACE_BOUND('',#443,.T.);
#445=ORIENTED_EDGE('',*,*,#282,.T.);
#446=EDGE_LOOP('',(#445));
#447=FACE_BOUND('',#446,.T.);
#448=ADVANCED_FACE('',(#423,#426,#429,#432,#435,#438,#441,#444,#447),#373,.F.);
#449=CARTESIAN_POINT('',(0.250000000000001,0.25,0.0));
#450=DIRECTION('',(-0.707106781186547,-0.707106781186548,0.0));
#451=DIRECTION('',(0.0,0.0,1.0));
#452=AXIS2_PLACEMENT_3D('',#449,#450,#451);
#453=PLANE('',#452);
#454=CARTESIAN_POINT('',(0.500000000000001,0.0,0.09375));
#455=VERTEX_POINT('',#454);
#456=CARTESIAN_POINT('',(0.500000000000001,1.110223E-016,0.09375));
#457=DIRECTION('',(-0.707106781186548,0.707106781186547,0.0));
#458=VECTOR('',#457,0.707106781186549);
#459=LINE('',#456,#458);
#460=EDGE_CURVE('',#455,#353,#459,.T.);
#461=ORIENTED_EDGE('',*,*,#460,.T.);
#462=ORIENTED_EDGE('',*,*,#358,.T.);
#463=ORIENTED_EDGE('',*,*,#419,.T.);
#464=CARTESIAN_POINT('',(0.500000000000001,0.0,0.0));
#465=DIRECTION('',(0.0,0.0,1.0));
#466=VECTOR('',#465,0.09375);
#467=LINE('',#464,#466);
#468=EDGE_CURVE('',#408,#455,#467,.T.);
#469=ORIENTED_EDGE('',*,*,#468,.T.);
#470=EDGE_LOOP('',(#461,#462,#463,#469));
#471=FACE_OUTER_BOUND('',#470,.T.);
#472=ADVANCED_FACE('',(#471),#453,.T.);
#473=CARTESIAN_POINT('',(14.199999999999999,0.0,0.0));
#474=DIRECTION('',(0.0,-1.0,0.0));
#475=DIRECTION('',(0.0,0.0,-1.0));
#476=AXIS2_PLACEMENT_3D('',#473,#474,#475);
#477=PLANE('',#476);
#478=ORIENTED_EDGE('',*,*,#468,.F.);
#479=ORIENTED_EDGE('',*,*,#413,.T.);
#480=CARTESIAN_POINT('',(13.699999999999999,0.0,0.09375));
#481=VERTEX_POINT('',#480);
#482=CARTESIAN_POINT('',(13.699999999999999,0.0,0.09375));
#483=DIRECTION('',(0.0,0.0,-1.0));
#484=VECTOR('',#483,0.09375);
#485=LINE('',#482,#484);
#486=EDGE_CURVE('',#481,#400,#485,.T.);
#487=ORIENTED_EDGE('',*,*,#486,.F.);
#488=CARTESIAN_POINT('',(13.699999999999999,0.0,0.09375));
#489=DIRECTION('',(-1.0,0.0,0.0));
#490=VECTOR('',#489,13.199999999999998);
#491=LINE('',#488,#490);
#492=EDGE_CURVE('',#481,#455,#491,.T.);
#493=ORIENTED_EDGE('',*,*,#492,.T.);
#494=EDGE_LOOP('',(#478,#479,#487,#493));
#495=FACE_OUTER_BOUND('',#494,.T.);
#496=ADVANCED_FACE('',(#495),#477,.T.);
#497=CARTESIAN_POINT('',(13.949999999999998,0.250000000000001,0.0));
#498=DIRECTION('',(0.707106781186548,-0.707106781186548,0.0));
#499=DIRECTION('',(0.0,0.0,-1.0));
#500=AXIS2_PLACEMENT_3D('',#497,#498,#499);
#501=PLANE('',#500);
#502=CARTESIAN_POINT('',(14.199999999999999,0.500000000000001,0.09375));
#503=VERTEX_POINT('',#502);
#504=CARTESIAN_POINT('',(14.199999999999999,0.500000000000001,0.09375));
#505=DIRECTION('',(-0.707106781186547,-0.707106781186548,0.0));
#506=VECTOR('',#505,0.707106781186548);
#507=LINE('',#504,#506);
#508=EDGE_CURVE('',#503,#481,#507,.T.);
#509=ORIENTED_EDGE('',*,*,#508,.T.);
#510=ORIENTED_EDGE('',*,*,#486,.T.);
#511=ORIENTED_EDGE('',*,*,#405,.T.);
#512=CARTESIAN_POINT('',(14.199999999999999,0.500000000000001,0.0));
#513=DIRECTION('',(0.0,0.0,1.0));
#514=VECTOR('',#513,0.09375);
#515=LINE('',#512,#514);
#516=EDGE_CURVE('',#392,#503,#515,.T.);
#517=ORIENTED_EDGE('',*,*,#516,.T.);
#518=EDGE_LOOP('',(#509,#510,#511,#517));
#519=FACE_OUTER_BOUND('',#518,.T.);
#520=ADVANCED_FACE('',(#519),#501,.T.);
#521=CARTESIAN_POINT('',(14.199999999999999,18.200000000000003,0.0));
#522=DIRECTION('',(1.0,0.0,0.0));
#523=DIRECTION('',(0.0,0.0,-1.0));
#524=AXIS2_PLACEMENT_3D('',#521,#522,#523);
#525=PLANE('',#524);
#526=ORIENTED_EDGE('',*,*,#516,.F.);
#527=ORIENTED_EDGE('',*,*,#397,.T.);
#528=CARTESIAN_POINT('',(14.199999999999999,17.699999999999999,0.09375));
#529=VERTEX_POINT('',#528);
#530=CARTESIAN_POINT('',(14.199999999999999,17.699999999999999,0.09375));
#531=DIRECTION('',(0.0,0.0,-1.0));
#532=VECTOR('',#531,0.09375);
#533=LINE('',#530,#532);
#534=EDGE_CURVE('',#529,#384,#533,.T.);
#535=ORIENTED_EDGE('',*,*,#534,.F.);
#536=CARTESIAN_POINT('',(14.199999999999999,17.699999999999999,0.09375));
#537=DIRECTION('',(0.0,-1.0,0.0));
#538=VECTOR('',#537,17.199999999999999);
#539=LINE('',#536,#538);
#540=EDGE_CURVE('',#529,#503,#539,.T.);
#541=ORIENTED_EDGE('',*,*,#540,.T.);
#542=EDGE_LOOP('',(#526,#527,#535,#541));
#543=FACE_OUTER_BOUND('',#542,.T.);
#544=ADVANCED_FACE('',(#543),#525,.T.);
#545=CARTESIAN_POINT('',(13.949999999999998,17.950000000000003,0.0));
#546=DIRECTION('',(0.707106781186548,0.707106781186548,0.0));
#547=DIRECTION('',(0.0,0.0,-1.0));
#548=AXIS2_PLACEMENT_3D('',#545,#546,#547);
#549=PLANE('',#548);
#550=CARTESIAN_POINT('',(13.699999999999999,18.200000000000003,0.09375));
#551=VERTEX_POINT('',#550);
#552=CARTESIAN_POINT('',(13.699999999999999,18.200000000000003,0.09375));
#553=DIRECTION('',(0.707106781186546,-0.707106781186549,0.0));
#554=VECTOR('',#553,0.707106781186551);
#555=LINE('',#552,#554);
#556=EDGE_CURVE('',#551,#529,#555,.T.);
#557=ORIENTED_EDGE('',*,*,#556,.T.);
#558=ORIENTED_EDGE('',*,*,#534,.T.);
#559=ORIENTED_EDGE('',*,*,#389,.T.);
#560=CARTESIAN_POINT('',(13.699999999999999,18.200000000000003,0.0));
#561=DIRECTION('',(0.0,0.0,1.0));
#562=VECTOR('',#561,0.09375);
#563=LINE('',#560,#562);
#564=EDGE_CURVE('',#376,#551,#563,.T.);
#565=ORIENTED_EDGE('',*,*,#564,.T.);
#566=EDGE_LOOP('',(#557,#558,#559,#565));
#567=FACE_OUTER_BOUND('',#566,.T.);
#568=ADVANCED_FACE('',(#567),#549,.T.);
#569=CARTESIAN_POINT('',(-5.572143E-015,18.199999999999999,0.0));
#570=DIRECTION('',(0.0,1.0,0.0));
#571=DIRECTION('',(0.0,0.0,1.0));
#572=AXIS2_PLACEMENT_3D('',#569,#570,#571);
#573=PLANE('',#572);
#574=ORIENTED_EDGE('',*,*,#319,.F.);
#575=CARTESIAN_POINT('',(0.499999999999995,18.199999999999999,0.09375));
#576=DIRECTION('',(1.0,0.0,0.0));
#577=VECTOR('',#576,13.200000000000003);
#578=LINE('',#575,#577);
#579=EDGE_CURVE('',#306,#551,#578,.T.);
#580=ORIENTED_EDGE('',*,*,#579,.T.);
#581=ORIENTED_EDGE('',*,*,#564,.F.);
#582=ORIENTED_EDGE('',*,*,#381,.T.);
#583=EDGE_LOOP('',(#574,#580,#581,#582));
#584=FACE_OUTER_BOUND('',#583,.T.);
#585=ADVANCED_FACE('',(#584),#573,.T.);
#586=CARTESIAN_POINT('',(7.099999999999997,9.100000000000001,0.09375));
#587=DIRECTION('',(0.0,0.0,1.0));
#588=DIRECTION('',(1.0,0.0,0.0));
#589=AXIS2_PLACEMENT_3D('',#586,#587,#588);
#590=PLANE('',#589);
#591=ORIENTED_EDGE('',*,*,#311,.F.);
#592=ORIENTED_EDGE('',*,*,#364,.F.);
#593=ORIENTED_EDGE('',*,*,#460,.F.);
#594=ORIENTED_EDGE('',*,*,#492,.F.);
#595=ORIENTED_EDGE('',*,*,#508,.F.);
#596=ORIENTED_EDGE('',*,*,#540,.F.);
#597=ORIENTED_EDGE('',*,*,#556,.F.);
#598=ORIENTED_EDGE('',*,*,#579,.F.);
#599=EDGE_LOOP('',(#591,#592,#593,#594,#595,#596,#597,#598));
#600=FACE_OUTER_BOUND('',#599,.T.);
#601=ORIENTED_EDGE('',*,*,#97,.T.);
#602=EDGE_LOOP('',(#601));
#603=FACE_BOUND('',#602,.T.);
#604=ORIENTED_EDGE('',*,*,#125,.T.);
#605=EDGE_LOOP('',(#604));
#606=FACE_BOUND('',#605,.T.);
#607=ORIENTED_EDGE('',*,*,#153,.T.);
#608=EDGE_LOOP('',(#607));
#609=FACE_BOUND('',#608,.T.);
#610=ORIENTED_EDGE('',*,*,#181,.T.);
#611=EDGE_LOOP('',(#610));
#612=FACE_BOUND('',#611,.T.);
#613=ORIENTED_EDGE('',*,*,#209,.T.);
#614=EDGE_LOOP('',(#613));
#615=FACE_BOUND('',#614,.T.);
#616=ORIENTED_EDGE('',*,*,#237,.T.);
#617=EDGE_LOOP('',(#616));
#618=FACE_BOUND('',#617,.T.);
#619=ORIENTED_EDGE('',*,*,#265,.T.);
#620=EDGE_LOOP('',(#619));
#621=FACE_BOUND('',#620,.T.);
#622=ORIENTED_EDGE('',*,*,#293,.T.);
#623=EDGE_LOOP('',(#622));
#624=FACE_BOUND('',#623,.T.);
#625=ADVANCED_FACE('',(#600,#603,#606,#609,#612,#615,#618,#621,#624),#590,.T.);
#626=CLOSED_SHELL('',(#101,#129,#157,#185,#213,#241,#269,#297,#337,#368,#448,#472,#496,#520,#544,#568,#585,#625));
#627=MANIFOLD_SOLID_BREP('Solid1',#626);
#628=COLOUR_RGB('',0.639216005802155,0.639216005802155,0.686275005340576);
#629=FILL_AREA_STYLE_COLOUR('',#628);
#630=FILL_AREA_STYLE('',(#629));
#631=SURFACE_STYLE_FILL_AREA(#630);
#632=SURFACE_SIDE_STYLE('',(#631));
#633=SURFACE_STYLE_USAGE(.BOTH.,#632);
#634=PRESENTATION_STYLE_ASSIGNMENT((#633));
#635=STYLED_ITEM('',(#634),#101);
#636=STYLED_ITEM('',(#634),#129);
#637=STYLED_ITEM('',(#634),#157);
#638=STYLED_ITEM('',(#634),#185);
#639=STYLED_ITEM('',(#634),#213);
#640=STYLED_ITEM('',(#634),#241);
#641=STYLED_ITEM('',(#634),#269);
#642=STYLED_ITEM('',(#634),#297);
#643=STYLED_ITEM('',(#634),#337);
#644=STYLED_ITEM('',(#634),#368);
#645=STYLED_ITEM('',(#634),#448);
#646=STYLED_ITEM('',(#634),#472);
#647=STYLED_ITEM('',(#634),#496);
#648=STYLED_ITEM('',(#634),#520);
#649=STYLED_ITEM('',(#634),#544);
#650=STYLED_ITEM('',(#634),#568);
#651=STYLED_ITEM('',(#634),#585);
#652=STYLED_ITEM('',(#634),#625);
#653=MECHANICAL_DESIGN_GEOMETRIC_PRESENTATION_REPRESENTATION('',(#635,#636,#637,#638,#639,#640,#641,#642,#643,#644,#645,#646,#647,#648,#649,#650,#651,#652,#661),#73);
#654=COLOUR_RGB('Metal-Steel',0.639216005802155,0.639216005802155,0.686275005340576);
#655=FILL_AREA_STYLE_COLOUR('Metal-Steel',#654);
#656=FILL_AREA_STYLE('Metal-Steel',(#655));
#657=SURFACE_STYLE_FILL_AREA(#656);
#658=SURFACE_SIDE_STYLE('Metal-Steel',(#657));
#659=SURFACE_STYLE_USAGE(.BOTH.,#658);
#660=PRESENTATION_STYLE_ASSIGNMENT((#659));
#661=STYLED_ITEM('',(#660),#627);
#662=ADVANCED_BREP_SHAPE_REPRESENTATION('ABSR',(#627),#42);
#663=SHAPE_REPRESENTATION_RELATIONSHIP('SRR','None',#662,#47);
ENDSEC;
END-ISO-10303-21;
