ISO-10303-21;
HEADER;
/* Generated by software containing ST-Developer
 * from STEP Tools, Inc. (www.steptools.com) 
 */

FILE_DESCRIPTION(
/* description */ ('SC LID, GALV - 4" X 6"'),
/* implementation_level */ '2;1');

FILE_NAME(
/* name */ 
'C:\\Wiegmann\\W-Projects\\W-India\\SC Series\\SC LIDS\\SC_G LID ONLY\\
SC_G LID ONLY STP, DXF, & PDF\\SC0406G.stp',
/* time_stamp */ '2017-02-27T21:45:37+05:00',
/* author */ ('mgunasekar'),
/* organization */ (''),
/* preprocessor_version */ 'ST-DEVELOPER v16.1',
/* originating_system */ 'Autodesk Inventor 2016',
/* authorisation */ '');

FILE_SCHEMA (('AUTOMOTIVE_DESIGN { 1 0 10303 214 3 1 1 }'));
ENDSEC;

DATA;
#10=MECHANICAL_DESIGN_GEOMETRIC_PRESENTATION_REPRESENTATION('',(#277,#273,
#266,#269,#268,#267,#264,#265,#271,#272,#270,#278,#274,#275,#276),#479);
#11=ITEM_DEFINED_TRANSFORMATION($,$,#294,#318);
#12=(
REPRESENTATION_RELATIONSHIP($,$,#494,#495)
REPRESENTATION_RELATIONSHIP_WITH_TRANSFORMATION(#11)
SHAPE_REPRESENTATION_RELATIONSHIP()
);
#13=CONTEXT_DEPENDENT_SHAPE_REPRESENTATION(#12,#493);
#14=NEXT_ASSEMBLY_USAGE_OCCURRENCE('SC0406GLPA:1','SC0406GLPA:1',
'SC0406GLPA:1',#498,#497,'SC0406GLPA:1');
#15=SHAPE_REPRESENTATION_RELATIONSHIP('SRR','None',#494,#16);
#16=ADVANCED_BREP_SHAPE_REPRESENTATION('',(#17),#477);
#17=MANIFOLD_SOLID_BREP('Solid1',#293);
#18=FACE_BOUND('',#59,.T.);
#19=FACE_BOUND('',#60,.T.);
#20=FACE_BOUND('',#62,.T.);
#21=FACE_BOUND('',#63,.T.);
#22=PLANE('',#298);
#23=PLANE('',#302);
#24=PLANE('',#303);
#25=PLANE('',#307);
#26=PLANE('',#311);
#27=PLANE('',#312);
#28=PLANE('',#313);
#29=PLANE('',#314);
#30=PLANE('',#315);
#31=PLANE('',#316);
#32=FACE_OUTER_BOUND('',#46,.T.);
#33=FACE_OUTER_BOUND('',#47,.T.);
#34=FACE_OUTER_BOUND('',#48,.T.);
#35=FACE_OUTER_BOUND('',#49,.T.);
#36=FACE_OUTER_BOUND('',#50,.T.);
#37=FACE_OUTER_BOUND('',#51,.T.);
#38=FACE_OUTER_BOUND('',#52,.T.);
#39=FACE_OUTER_BOUND('',#53,.T.);
#40=FACE_OUTER_BOUND('',#54,.T.);
#41=FACE_OUTER_BOUND('',#55,.T.);
#42=FACE_OUTER_BOUND('',#56,.T.);
#43=FACE_OUTER_BOUND('',#57,.T.);
#44=FACE_OUTER_BOUND('',#58,.T.);
#45=FACE_OUTER_BOUND('',#61,.T.);
#46=EDGE_LOOP('',(#188,#189,#190,#191));
#47=EDGE_LOOP('',(#192,#193,#194,#195));
#48=EDGE_LOOP('',(#196,#197,#198,#199));
#49=EDGE_LOOP('',(#200,#201,#202,#203));
#50=EDGE_LOOP('',(#204,#205,#206,#207));
#51=EDGE_LOOP('',(#208,#209,#210,#211));
#52=EDGE_LOOP('',(#212,#213,#214,#215));
#53=EDGE_LOOP('',(#216,#217,#218,#219));
#54=EDGE_LOOP('',(#220,#221,#222,#223));
#55=EDGE_LOOP('',(#224,#225,#226,#227));
#56=EDGE_LOOP('',(#228,#229,#230,#231));
#57=EDGE_LOOP('',(#232,#233,#234,#235));
#58=EDGE_LOOP('',(#236,#237,#238,#239));
#59=EDGE_LOOP('',(#240,#241,#242,#243));
#60=EDGE_LOOP('',(#244,#245,#246,#247));
#61=EDGE_LOOP('',(#248,#249,#250,#251));
#62=EDGE_LOOP('',(#252,#253,#254,#255));
#63=EDGE_LOOP('',(#256,#257,#258,#259));
#64=LINE('',#403,#92);
#65=LINE('',#406,#93);
#66=LINE('',#409,#94);
#67=LINE('',#411,#95);
#68=LINE('',#412,#96);
#69=LINE('',#418,#97);
#70=LINE('',#420,#98);
#71=LINE('',#421,#99);
#72=LINE('',#425,#100);
#73=LINE('',#427,#101);
#74=LINE('',#429,#102);
#75=LINE('',#430,#103);
#76=LINE('',#436,#104);
#77=LINE('',#439,#105);
#78=LINE('',#441,#106);
#79=LINE('',#442,#107);
#80=LINE('',#449,#108);
#81=LINE('',#451,#109);
#82=LINE('',#453,#110);
#83=LINE('',#454,#111);
#84=LINE('',#457,#112);
#85=LINE('',#459,#113);
#86=LINE('',#460,#114);
#87=LINE('',#463,#115);
#88=LINE('',#465,#116);
#89=LINE('',#466,#117);
#90=LINE('',#468,#118);
#91=LINE('',#469,#119);
#92=VECTOR('',#325,0.059);
#93=VECTOR('',#328,0.059);
#94=VECTOR('',#331,0.269957404051826);
#95=VECTOR('',#332,0.269957404051826);
#96=VECTOR('',#333,0.059);
#97=VECTOR('',#340,0.059);
#98=VECTOR('',#343,0.269957404051826);
#99=VECTOR('',#344,0.269957404051826);
#100=VECTOR('',#347,0.269957404051826);
#101=VECTOR('',#348,0.059);
#102=VECTOR('',#349,0.269957404051826);
#103=VECTOR('',#350,0.059);
#104=VECTOR('',#357,0.059);
#105=VECTOR('',#360,0.269957404051826);
#106=VECTOR('',#361,0.269957404051826);
#107=VECTOR('',#362,0.059);
#108=VECTOR('',#371,6.);
#109=VECTOR('',#372,0.059);
#110=VECTOR('',#373,6.);
#111=VECTOR('',#374,0.059);
#112=VECTOR('',#377,4.);
#113=VECTOR('',#378,0.059);
#114=VECTOR('',#379,4.);
#115=VECTOR('',#382,6.);
#116=VECTOR('',#383,0.059);
#117=VECTOR('',#384,6.);
#118=VECTOR('',#387,4.);
#119=VECTOR('',#388,4.);
#120=CIRCLE('',#296,0.203);
#121=CIRCLE('',#297,0.203);
#122=CIRCLE('',#300,0.12499999999952);
#123=CIRCLE('',#301,0.12499999999952);
#124=CIRCLE('',#305,0.12499999999952);
#125=CIRCLE('',#306,0.12499999999952);
#126=CIRCLE('',#309,0.203);
#127=CIRCLE('',#310,0.203);
#128=VERTEX_POINT('',#399);
#129=VERTEX_POINT('',#400);
#130=VERTEX_POINT('',#402);
#131=VERTEX_POINT('',#404);
#132=VERTEX_POINT('',#408);
#133=VERTEX_POINT('',#410);
#134=VERTEX_POINT('',#414);
#135=VERTEX_POINT('',#416);
#136=VERTEX_POINT('',#423);
#137=VERTEX_POINT('',#424);
#138=VERTEX_POINT('',#426);
#139=VERTEX_POINT('',#428);
#140=VERTEX_POINT('',#432);
#141=VERTEX_POINT('',#434);
#142=VERTEX_POINT('',#438);
#143=VERTEX_POINT('',#440);
#144=VERTEX_POINT('',#447);
#145=VERTEX_POINT('',#448);
#146=VERTEX_POINT('',#450);
#147=VERTEX_POINT('',#452);
#148=VERTEX_POINT('',#456);
#149=VERTEX_POINT('',#458);
#150=VERTEX_POINT('',#462);
#151=VERTEX_POINT('',#464);
#152=EDGE_CURVE('',#128,#129,#120,.T.);
#153=EDGE_CURVE('',#130,#128,#64,.T.);
#154=EDGE_CURVE('',#131,#130,#121,.T.);
#155=EDGE_CURVE('',#131,#129,#65,.T.);
#156=EDGE_CURVE('',#129,#132,#66,.T.);
#157=EDGE_CURVE('',#133,#131,#67,.T.);
#158=EDGE_CURVE('',#133,#132,#68,.T.);
#159=EDGE_CURVE('',#132,#134,#122,.T.);
#160=EDGE_CURVE('',#135,#133,#123,.T.);
#161=EDGE_CURVE('',#135,#134,#69,.T.);
#162=EDGE_CURVE('',#134,#128,#70,.T.);
#163=EDGE_CURVE('',#130,#135,#71,.T.);
#164=EDGE_CURVE('',#136,#137,#72,.T.);
#165=EDGE_CURVE('',#138,#136,#73,.T.);
#166=EDGE_CURVE('',#139,#138,#74,.T.);
#167=EDGE_CURVE('',#139,#137,#75,.T.);
#168=EDGE_CURVE('',#137,#140,#124,.T.);
#169=EDGE_CURVE('',#141,#139,#125,.T.);
#170=EDGE_CURVE('',#141,#140,#76,.T.);
#171=EDGE_CURVE('',#140,#142,#77,.T.);
#172=EDGE_CURVE('',#143,#141,#78,.T.);
#173=EDGE_CURVE('',#143,#142,#79,.T.);
#174=EDGE_CURVE('',#142,#136,#126,.T.);
#175=EDGE_CURVE('',#138,#143,#127,.T.);
#176=EDGE_CURVE('',#144,#145,#80,.T.);
#177=EDGE_CURVE('',#146,#145,#81,.T.);
#178=EDGE_CURVE('',#147,#146,#82,.T.);
#179=EDGE_CURVE('',#147,#144,#83,.T.);
#180=EDGE_CURVE('',#145,#148,#84,.T.);
#181=EDGE_CURVE('',#149,#148,#85,.T.);
#182=EDGE_CURVE('',#146,#149,#86,.T.);
#183=EDGE_CURVE('',#148,#150,#87,.T.);
#184=EDGE_CURVE('',#151,#150,#88,.T.);
#185=EDGE_CURVE('',#149,#151,#89,.T.);
#186=EDGE_CURVE('',#150,#144,#90,.T.);
#187=EDGE_CURVE('',#151,#147,#91,.T.);
#188=ORIENTED_EDGE('',*,*,#152,.F.);
#189=ORIENTED_EDGE('',*,*,#153,.F.);
#190=ORIENTED_EDGE('',*,*,#154,.F.);
#191=ORIENTED_EDGE('',*,*,#155,.T.);
#192=ORIENTED_EDGE('',*,*,#156,.F.);
#193=ORIENTED_EDGE('',*,*,#155,.F.);
#194=ORIENTED_EDGE('',*,*,#157,.F.);
#195=ORIENTED_EDGE('',*,*,#158,.T.);
#196=ORIENTED_EDGE('',*,*,#159,.F.);
#197=ORIENTED_EDGE('',*,*,#158,.F.);
#198=ORIENTED_EDGE('',*,*,#160,.F.);
#199=ORIENTED_EDGE('',*,*,#161,.T.);
#200=ORIENTED_EDGE('',*,*,#162,.F.);
#201=ORIENTED_EDGE('',*,*,#161,.F.);
#202=ORIENTED_EDGE('',*,*,#163,.F.);
#203=ORIENTED_EDGE('',*,*,#153,.T.);
#204=ORIENTED_EDGE('',*,*,#164,.F.);
#205=ORIENTED_EDGE('',*,*,#165,.F.);
#206=ORIENTED_EDGE('',*,*,#166,.F.);
#207=ORIENTED_EDGE('',*,*,#167,.T.);
#208=ORIENTED_EDGE('',*,*,#168,.F.);
#209=ORIENTED_EDGE('',*,*,#167,.F.);
#210=ORIENTED_EDGE('',*,*,#169,.F.);
#211=ORIENTED_EDGE('',*,*,#170,.T.);
#212=ORIENTED_EDGE('',*,*,#171,.F.);
#213=ORIENTED_EDGE('',*,*,#170,.F.);
#214=ORIENTED_EDGE('',*,*,#172,.F.);
#215=ORIENTED_EDGE('',*,*,#173,.T.);
#216=ORIENTED_EDGE('',*,*,#174,.F.);
#217=ORIENTED_EDGE('',*,*,#173,.F.);
#218=ORIENTED_EDGE('',*,*,#175,.F.);
#219=ORIENTED_EDGE('',*,*,#165,.T.);
#220=ORIENTED_EDGE('',*,*,#176,.T.);
#221=ORIENTED_EDGE('',*,*,#177,.F.);
#222=ORIENTED_EDGE('',*,*,#178,.F.);
#223=ORIENTED_EDGE('',*,*,#179,.T.);
#224=ORIENTED_EDGE('',*,*,#180,.T.);
#225=ORIENTED_EDGE('',*,*,#181,.F.);
#226=ORIENTED_EDGE('',*,*,#182,.F.);
#227=ORIENTED_EDGE('',*,*,#177,.T.);
#228=ORIENTED_EDGE('',*,*,#183,.T.);
#229=ORIENTED_EDGE('',*,*,#184,.F.);
#230=ORIENTED_EDGE('',*,*,#185,.F.);
#231=ORIENTED_EDGE('',*,*,#181,.T.);
#232=ORIENTED_EDGE('',*,*,#186,.T.);
#233=ORIENTED_EDGE('',*,*,#179,.F.);
#234=ORIENTED_EDGE('',*,*,#187,.F.);
#235=ORIENTED_EDGE('',*,*,#184,.T.);
#236=ORIENTED_EDGE('',*,*,#176,.F.);
#237=ORIENTED_EDGE('',*,*,#186,.F.);
#238=ORIENTED_EDGE('',*,*,#183,.F.);
#239=ORIENTED_EDGE('',*,*,#180,.F.);
#240=ORIENTED_EDGE('',*,*,#154,.T.);
#241=ORIENTED_EDGE('',*,*,#163,.T.);
#242=ORIENTED_EDGE('',*,*,#160,.T.);
#243=ORIENTED_EDGE('',*,*,#157,.T.);
#244=ORIENTED_EDGE('',*,*,#166,.T.);
#245=ORIENTED_EDGE('',*,*,#175,.T.);
#246=ORIENTED_EDGE('',*,*,#172,.T.);
#247=ORIENTED_EDGE('',*,*,#169,.T.);
#248=ORIENTED_EDGE('',*,*,#187,.T.);
#249=ORIENTED_EDGE('',*,*,#178,.T.);
#250=ORIENTED_EDGE('',*,*,#182,.T.);
#251=ORIENTED_EDGE('',*,*,#185,.T.);
#252=ORIENTED_EDGE('',*,*,#152,.T.);
#253=ORIENTED_EDGE('',*,*,#156,.T.);
#254=ORIENTED_EDGE('',*,*,#159,.T.);
#255=ORIENTED_EDGE('',*,*,#162,.T.);
#256=ORIENTED_EDGE('',*,*,#164,.T.);
#257=ORIENTED_EDGE('',*,*,#168,.T.);
#258=ORIENTED_EDGE('',*,*,#171,.T.);
#259=ORIENTED_EDGE('',*,*,#174,.T.);
#260=CYLINDRICAL_SURFACE('',#295,0.203);
#261=CYLINDRICAL_SURFACE('',#299,0.12499999999952);
#262=CYLINDRICAL_SURFACE('',#304,0.12499999999952);
#263=CYLINDRICAL_SURFACE('',#308,0.203);
#264=STYLED_ITEM('',(#508),#279);
#265=STYLED_ITEM('',(#508),#280);
#266=STYLED_ITEM('',(#508),#281);
#267=STYLED_ITEM('',(#508),#282);
#268=STYLED_ITEM('',(#508),#283);
#269=STYLED_ITEM('',(#508),#284);
#270=STYLED_ITEM('',(#508),#285);
#271=STYLED_ITEM('',(#508),#286);
#272=STYLED_ITEM('',(#508),#287);
#273=STYLED_ITEM('',(#508),#288);
#274=STYLED_ITEM('',(#508),#289);
#275=STYLED_ITEM('',(#508),#290);
#276=STYLED_ITEM('',(#508),#291);
#277=STYLED_ITEM('',(#508),#292);
#278=STYLED_ITEM('',(#508),#17);
#279=ADVANCED_FACE('',(#32),#260,.F.);
#280=ADVANCED_FACE('',(#33),#22,.F.);
#281=ADVANCED_FACE('',(#34),#261,.F.);
#282=ADVANCED_FACE('',(#35),#23,.F.);
#283=ADVANCED_FACE('',(#36),#24,.F.);
#284=ADVANCED_FACE('',(#37),#262,.F.);
#285=ADVANCED_FACE('',(#38),#25,.F.);
#286=ADVANCED_FACE('',(#39),#263,.F.);
#287=ADVANCED_FACE('',(#40),#26,.T.);
#288=ADVANCED_FACE('',(#41),#27,.T.);
#289=ADVANCED_FACE('',(#42),#28,.T.);
#290=ADVANCED_FACE('',(#43),#29,.T.);
#291=ADVANCED_FACE('',(#44,#18,#19),#30,.T.);
#292=ADVANCED_FACE('',(#45,#20,#21),#31,.F.);
#293=CLOSED_SHELL('',(#279,#280,#281,#282,#283,#284,#285,#286,#287,#288,
#289,#290,#291,#292));
#294=AXIS2_PLACEMENT_3D('placement',#397,#319,#320);
#295=AXIS2_PLACEMENT_3D('',#398,#321,#322);
#296=AXIS2_PLACEMENT_3D('',#401,#323,#324);
#297=AXIS2_PLACEMENT_3D('',#405,#326,#327);
#298=AXIS2_PLACEMENT_3D('',#407,#329,#330);
#299=AXIS2_PLACEMENT_3D('',#413,#334,#335);
#300=AXIS2_PLACEMENT_3D('',#415,#336,#337);
#301=AXIS2_PLACEMENT_3D('',#417,#338,#339);
#302=AXIS2_PLACEMENT_3D('',#419,#341,#342);
#303=AXIS2_PLACEMENT_3D('',#422,#345,#346);
#304=AXIS2_PLACEMENT_3D('',#431,#351,#352);
#305=AXIS2_PLACEMENT_3D('',#433,#353,#354);
#306=AXIS2_PLACEMENT_3D('',#435,#355,#356);
#307=AXIS2_PLACEMENT_3D('',#437,#358,#359);
#308=AXIS2_PLACEMENT_3D('',#443,#363,#364);
#309=AXIS2_PLACEMENT_3D('',#444,#365,#366);
#310=AXIS2_PLACEMENT_3D('',#445,#367,#368);
#311=AXIS2_PLACEMENT_3D('',#446,#369,#370);
#312=AXIS2_PLACEMENT_3D('',#455,#375,#376);
#313=AXIS2_PLACEMENT_3D('',#461,#380,#381);
#314=AXIS2_PLACEMENT_3D('',#467,#385,#386);
#315=AXIS2_PLACEMENT_3D('',#470,#389,#390);
#316=AXIS2_PLACEMENT_3D('',#471,#391,#392);
#317=AXIS2_PLACEMENT_3D('placement',#472,#393,#394);
#318=AXIS2_PLACEMENT_3D('',#473,#395,#396);
#319=DIRECTION('axis',(0.,0.,1.));
#320=DIRECTION('refdir',(1.,0.,0.));
#321=DIRECTION('center_axis',(0.,0.,-1.));
#322=DIRECTION('ref_axis',(-0.960702505507452,0.277580071171734,0.));
#323=DIRECTION('center_axis',(0.,0.,1.));
#324=DIRECTION('ref_axis',(-0.960702505507452,0.277580071171734,0.));
#325=DIRECTION('',(0.,0.,-1.));
#326=DIRECTION('center_axis',(0.,0.,-1.));
#327=DIRECTION('ref_axis',(-0.960702505507452,0.277580071171734,0.));
#328=DIRECTION('',(0.,0.,-1.));
#329=DIRECTION('center_axis',(0.960702505507452,0.277580071171735,0.));
#330=DIRECTION('ref_axis',(0.,0.,-1.));
#331=DIRECTION('',(-0.277580071171735,0.960702505507452,0.));
#332=DIRECTION('',(0.277580071171735,-0.960702505507452,0.));
#333=DIRECTION('',(0.,0.,-1.));
#334=DIRECTION('center_axis',(0.,0.,-1.));
#335=DIRECTION('ref_axis',(0.960702505507451,0.277580071171735,0.));
#336=DIRECTION('center_axis',(0.,0.,1.));
#337=DIRECTION('ref_axis',(0.960702505507451,0.277580071171735,0.));
#338=DIRECTION('center_axis',(0.,0.,-1.));
#339=DIRECTION('ref_axis',(0.960702505507451,0.277580071171735,0.));
#340=DIRECTION('',(0.,0.,-1.));
#341=DIRECTION('center_axis',(-0.960702505507452,0.277580071171732,0.));
#342=DIRECTION('ref_axis',(0.,0.,1.));
#343=DIRECTION('',(-0.277580071171732,-0.960702505507452,0.));
#344=DIRECTION('',(0.277580071171732,0.960702505507452,0.));
#345=DIRECTION('center_axis',(0.960702505507452,0.277580071171735,0.));
#346=DIRECTION('ref_axis',(0.,0.,-1.));
#347=DIRECTION('',(-0.277580071171735,0.960702505507452,0.));
#348=DIRECTION('',(0.,0.,-1.));
#349=DIRECTION('',(0.277580071171735,-0.960702505507452,0.));
#350=DIRECTION('',(0.,0.,-1.));
#351=DIRECTION('center_axis',(0.,0.,-1.));
#352=DIRECTION('ref_axis',(0.960702505507451,0.277580071171735,0.));
#353=DIRECTION('center_axis',(0.,0.,1.));
#354=DIRECTION('ref_axis',(0.960702505507451,0.277580071171735,0.));
#355=DIRECTION('center_axis',(0.,0.,-1.));
#356=DIRECTION('ref_axis',(0.960702505507451,0.277580071171735,0.));
#357=DIRECTION('',(0.,0.,-1.));
#358=DIRECTION('center_axis',(-0.960702505507452,0.277580071171732,0.));
#359=DIRECTION('ref_axis',(0.,0.,1.));
#360=DIRECTION('',(-0.277580071171732,-0.960702505507452,0.));
#361=DIRECTION('',(0.277580071171732,0.960702505507452,0.));
#362=DIRECTION('',(0.,0.,-1.));
#363=DIRECTION('center_axis',(0.,0.,-1.));
#364=DIRECTION('ref_axis',(-0.960702505507452,0.277580071171734,0.));
#365=DIRECTION('center_axis',(0.,0.,1.));
#366=DIRECTION('ref_axis',(-0.960702505507452,0.277580071171734,0.));
#367=DIRECTION('center_axis',(0.,0.,-1.));
#368=DIRECTION('ref_axis',(-0.960702505507452,0.277580071171734,0.));
#369=DIRECTION('center_axis',(1.,-1.74838271594513E-16,0.));
#370=DIRECTION('ref_axis',(0.,0.,-1.));
#371=DIRECTION('',(-1.74838271594513E-16,-1.,0.));
#372=DIRECTION('',(0.,0.,1.));
#373=DIRECTION('',(-1.74838271594513E-16,-1.,0.));
#374=DIRECTION('',(0.,0.,1.));
#375=DIRECTION('center_axis',(-1.74838271594513E-16,-1.,0.));
#376=DIRECTION('ref_axis',(0.,0.,-1.));
#377=DIRECTION('',(-1.,1.74838271594513E-16,0.));
#378=DIRECTION('',(0.,0.,1.));
#379=DIRECTION('',(-1.,1.74838271594513E-16,0.));
#380=DIRECTION('center_axis',(-1.,1.16558847729675E-16,0.));
#381=DIRECTION('ref_axis',(0.,0.,1.));
#382=DIRECTION('',(1.16558847729675E-16,1.,0.));
#383=DIRECTION('',(0.,0.,1.));
#384=DIRECTION('',(1.16558847729675E-16,1.,0.));
#385=DIRECTION('center_axis',(3.49676543189026E-16,1.,0.));
#386=DIRECTION('ref_axis',(0.,0.,1.));
#387=DIRECTION('',(1.,-3.49676543189026E-16,0.));
#388=DIRECTION('',(1.,-3.49676543189026E-16,0.));
#389=DIRECTION('center_axis',(0.,0.,1.));
#390=DIRECTION('ref_axis',(1.,0.,0.));
#391=DIRECTION('center_axis',(0.,0.,1.));
#392=DIRECTION('ref_axis',(1.,0.,0.));
#393=DIRECTION('axis',(0.,0.,1.));
#394=DIRECTION('refdir',(1.,0.,0.));
#395=DIRECTION('',(0.,0.,1.));
#396=DIRECTION('',(1.,0.,0.));
#397=CARTESIAN_POINT('',(0.,0.,0.));
#398=CARTESIAN_POINT('Origin',(1.71875,-0.281000000004418,0.059));
#399=CARTESIAN_POINT('',(1.52372739138199,-0.224651245556556,0.));
#400=CARTESIAN_POINT('',(1.91377260861801,-0.224651245556556,0.));
#401=CARTESIAN_POINT('Origin',(1.71875,-0.281000000004418,0.));
#402=CARTESIAN_POINT('',(1.52372739138199,-0.224651245556556,0.059));
#403=CARTESIAN_POINT('',(1.52372739138199,-0.224651245556556,0.059));
#404=CARTESIAN_POINT('',(1.91377260861801,-0.224651245556556,0.059));
#405=CARTESIAN_POINT('Origin',(1.71875,-0.281000000004418,0.059));
#406=CARTESIAN_POINT('',(1.91377260861801,-0.224651245556556,0.059));
#407=CARTESIAN_POINT('Origin',(1.91377260861801,-0.224651245556556,0.059));
#408=CARTESIAN_POINT('',(1.83883781318797,0.0346975088963207,0.));
#409=CARTESIAN_POINT('',(1.81008976910387,0.134194269825345,0.));
#410=CARTESIAN_POINT('',(1.83883781318797,0.0346975088963207,0.059));
#411=CARTESIAN_POINT('',(1.81008976910387,0.134194269825345,0.059));
#412=CARTESIAN_POINT('',(1.83883781318797,0.0346975088963207,0.059));
#413=CARTESIAN_POINT('Origin',(1.71875,-1.29380320979939E-14,0.059));
#414=CARTESIAN_POINT('',(1.59866218681203,0.0346975088963207,0.));
#415=CARTESIAN_POINT('Origin',(1.71875,-1.29380320979939E-14,0.));
#416=CARTESIAN_POINT('',(1.59866218681203,0.0346975088963207,0.059));
#417=CARTESIAN_POINT('Origin',(1.71875,-1.29380320979939E-14,0.059));
#418=CARTESIAN_POINT('',(1.59866218681203,0.0346975088963207,0.059));
#419=CARTESIAN_POINT('Origin',(1.59866218681203,0.0346975088963207,0.059));
#420=CARTESIAN_POINT('',(1.53244674501291,-0.194473629259128,5.46369598732853E-18));
#421=CARTESIAN_POINT('',(1.53244674501291,-0.194473629259128,0.059));
#422=CARTESIAN_POINT('Origin',(-1.52372739138199,-0.224651245556555,0.059));
#423=CARTESIAN_POINT('',(-1.52372739138199,-0.224651245556555,0.));
#424=CARTESIAN_POINT('',(-1.59866218681203,0.034697508896321,0.));
#425=CARTESIAN_POINT('',(-1.49497934729789,-0.324148006485568,0.));
#426=CARTESIAN_POINT('',(-1.52372739138199,-0.224651245556555,0.059));
#427=CARTESIAN_POINT('',(-1.52372739138199,-0.224651245556555,0.059));
#428=CARTESIAN_POINT('',(-1.59866218681203,0.034697508896321,0.059));
#429=CARTESIAN_POINT('',(-1.49497934729789,-0.324148006485568,0.059));
#430=CARTESIAN_POINT('',(-1.59866218681203,0.034697508896321,0.059));
#431=CARTESIAN_POINT('Origin',(-1.71875,-1.25883555548049E-14,0.059));
#432=CARTESIAN_POINT('',(-1.83883781318797,0.034697508896321,0.));
#433=CARTESIAN_POINT('Origin',(-1.71875,-1.25883555548049E-14,0.));
#434=CARTESIAN_POINT('',(-1.83883781318797,0.034697508896321,0.059));
#435=CARTESIAN_POINT('Origin',(-1.71875,-1.25883555548049E-14,0.059));
#436=CARTESIAN_POINT('',(-1.83883781318797,0.034697508896321,0.059));
#437=CARTESIAN_POINT('Origin',(-1.83883781318797,0.034697508896321,0.059));
#438=CARTESIAN_POINT('',(-1.91377260861801,-0.224651245556555,0.));
#439=CARTESIAN_POINT('',(-1.77262237138885,0.263868647051781,5.46369598732853E-18));
#440=CARTESIAN_POINT('',(-1.91377260861801,-0.224651245556555,0.059));
#441=CARTESIAN_POINT('',(-1.77262237138885,0.263868647051781,0.059));
#442=CARTESIAN_POINT('',(-1.91377260861801,-0.224651245556555,0.059));
#443=CARTESIAN_POINT('Origin',(-1.71875,-0.281000000004417,0.059));
#444=CARTESIAN_POINT('Origin',(-1.71875,-0.281000000004417,0.));
#445=CARTESIAN_POINT('Origin',(-1.71875,-0.281000000004417,0.059));
#446=CARTESIAN_POINT('Origin',(2.,3.,0.));
#447=CARTESIAN_POINT('',(2.,3.,0.059));
#448=CARTESIAN_POINT('',(2.,-3.,0.059));
#449=CARTESIAN_POINT('',(2.,3.,0.059));
#450=CARTESIAN_POINT('',(2.,-3.,0.));
#451=CARTESIAN_POINT('',(2.,-3.,0.));
#452=CARTESIAN_POINT('',(2.,3.,0.));
#453=CARTESIAN_POINT('',(2.,3.,0.));
#454=CARTESIAN_POINT('',(2.,3.,0.));
#455=CARTESIAN_POINT('Origin',(2.,-3.,0.));
#456=CARTESIAN_POINT('',(-2.,-3.,0.059));
#457=CARTESIAN_POINT('',(2.,-3.,0.059));
#458=CARTESIAN_POINT('',(-2.,-3.,0.));
#459=CARTESIAN_POINT('',(-2.,-3.,0.));
#460=CARTESIAN_POINT('',(2.,-3.,0.));
#461=CARTESIAN_POINT('Origin',(-2.,-3.,0.));
#462=CARTESIAN_POINT('',(-2.,3.,0.059));
#463=CARTESIAN_POINT('',(-2.,-3.,0.059));
#464=CARTESIAN_POINT('',(-2.,3.,0.));
#465=CARTESIAN_POINT('',(-2.,3.,0.));
#466=CARTESIAN_POINT('',(-2.,-3.,0.));
#467=CARTESIAN_POINT('Origin',(-2.,3.,0.));
#468=CARTESIAN_POINT('',(-2.,3.,0.059));
#469=CARTESIAN_POINT('',(-2.,3.,0.));
#470=CARTESIAN_POINT('Origin',(2.62257407391769E-16,-7.1206859703947E-16,
0.059));
#471=CARTESIAN_POINT('Origin',(2.62257407391769E-16,-6.99353086378051E-16,
0.));
#472=CARTESIAN_POINT('',(0.,0.,0.));
#473=CARTESIAN_POINT('',(-1.3987061727561E-15,3.49676543189026E-16,-0.031));
#474=UNCERTAINTY_MEASURE_WITH_UNIT(LENGTH_MEASURE(0.000393700787401575),
#480,'DISTANCE_ACCURACY_VALUE',
'Maximum model space distance between geometric entities at asserted c
onnectivities');
#475=UNCERTAINTY_MEASURE_WITH_UNIT(LENGTH_MEASURE(0.000393700787401575),
#480,'DISTANCE_ACCURACY_VALUE',
'Maximum model space distance between geometric entities at asserted c
onnectivities');
#476=UNCERTAINTY_MEASURE_WITH_UNIT(LENGTH_MEASURE(1.E-6),#481,
'DISTANCE_ACCURACY_VALUE',
'Maximum model space distance between geometric entities at asserted c
onnectivities');
#477=(
GEOMETRIC_REPRESENTATION_CONTEXT(3)
GLOBAL_UNCERTAINTY_ASSIGNED_CONTEXT((#474))
GLOBAL_UNIT_ASSIGNED_CONTEXT((#480,#486,#483))
REPRESENTATION_CONTEXT('','3D')
);
#478=(
GEOMETRIC_REPRESENTATION_CONTEXT(3)
GLOBAL_UNCERTAINTY_ASSIGNED_CONTEXT((#475))
GLOBAL_UNIT_ASSIGNED_CONTEXT((#480,#486,#483))
REPRESENTATION_CONTEXT('','3D')
);
#479=(
GEOMETRIC_REPRESENTATION_CONTEXT(3)
GLOBAL_UNCERTAINTY_ASSIGNED_CONTEXT((#476))
GLOBAL_UNIT_ASSIGNED_CONTEXT((#481,#486,#483))
REPRESENTATION_CONTEXT('','3D')
);
#480=(
CONVERSION_BASED_UNIT('__CONSTANT UNIT inch',#482)
LENGTH_UNIT()
NAMED_UNIT(#485)
);
#481=(
LENGTH_UNIT()
NAMED_UNIT(*)
SI_UNIT(.MILLI.,.METRE.)
);
#482=LENGTH_MEASURE_WITH_UNIT(LENGTH_MEASURE(25.4),#481);
#483=(
NAMED_UNIT(*)
SI_UNIT($,.STERADIAN.)
SOLID_ANGLE_UNIT()
);
#484=DIMENSIONAL_EXPONENTS(0.,0.,0.,0.,0.,0.,0.);
#485=DIMENSIONAL_EXPONENTS(1.,0.,0.,0.,0.,0.,0.);
#486=(
CONVERSION_BASED_UNIT('degree',#488)
NAMED_UNIT(#484)
PLANE_ANGLE_UNIT()
);
#487=(
NAMED_UNIT(*)
PLANE_ANGLE_UNIT()
SI_UNIT($,.RADIAN.)
);
#488=PLANE_ANGLE_MEASURE_WITH_UNIT(PLANE_ANGLE_MEASURE(0.01745329252),#487);
#489=SHAPE_DEFINITION_REPRESENTATION(#491,#494);
#490=SHAPE_DEFINITION_REPRESENTATION(#492,#495);
#491=PRODUCT_DEFINITION_SHAPE('',$,#497);
#492=PRODUCT_DEFINITION_SHAPE('',$,#498);
#493=PRODUCT_DEFINITION_SHAPE($,$,#14);
#494=SHAPE_REPRESENTATION('',(#294),#477);
#495=SHAPE_REPRESENTATION('',(#317,#318),#478);
#496=PRODUCT_DEFINITION_CONTEXT('part definition',#504,'design');
#497=PRODUCT_DEFINITION('SC0406GLPA','SC0406GLPA',#499,#496);
#498=PRODUCT_DEFINITION('SC0406G','SC0406G',#500,#496);
#499=PRODUCT_DEFINITION_FORMATION('',$,#506);
#500=PRODUCT_DEFINITION_FORMATION('',$,#507);
#501=PRODUCT_RELATED_PRODUCT_CATEGORY('SC0406GLPA','SC0406GLPA',(#506));
#502=PRODUCT_RELATED_PRODUCT_CATEGORY('SC0406G','SC0406G',(#507));
#503=APPLICATION_PROTOCOL_DEFINITION('international standard',
'automotive_design',2009,#504);
#504=APPLICATION_CONTEXT(
'Core Data for Automotive Mechanical Design Process');
#505=PRODUCT_CONTEXT('part definition',#504,'mechanical');
#506=PRODUCT('SC0406GLPA','SC0406GLPA',$,(#505));
#507=PRODUCT('SC0406G','SC0406G',$,(#505));
#508=PRESENTATION_STYLE_ASSIGNMENT((#509));
#509=SURFACE_STYLE_USAGE(.BOTH.,#510);
#510=SURFACE_SIDE_STYLE('',(#511));
#511=SURFACE_STYLE_FILL_AREA(#512);
#512=FILL_AREA_STYLE('',(#513));
#513=FILL_AREA_STYLE_COLOUR('',#514);
#514=COLOUR_RGB('',0.52156862745098,0.592156862745098,0.623529411764706);
ENDSEC;
END-ISO-10303-21;
