ISO-10303-21;
HEADER;
/* Generated by software containing ST-Developer
 * from STEP Tools, Inc. (www.steptools.com) 
 */

FILE_DESCRIPTION(
/* description */ ('FLUSH MOUNT SCREW COVER, 6X6, CS'),
/* implementation_level */ '2;1');

FILE_NAME(
/* name */ 
'C:\\Wiegmann\\W-Projects\\Wafer\\FLUSH MOUNT SCREW COVER LIDS\\SCF\\S
CF DXF,STP & PDF\\SCF0606.stp',
/* time_stamp */ '2016-07-05T23:12:36+06:00',
/* author */ ('vdas'),
/* organization */ (''),
/* preprocessor_version */ 'ST-DEVELOPER v16.1',
/* originating_system */ 'Autodesk Inventor 2016',
/* authorisation */ '');

FILE_SCHEMA (('AUTOMOTIVE_DESIGN { 1 0 10303 214 3 1 1 }'));
ENDSEC;

DATA;
#10=MECHANICAL_DESIGN_GEOMETRIC_PRESENTATION_REPRESENTATION('',(#270,#269,
#265,#263,#266,#262,#267,#271,#268,#260,#273,#264,#274,#261,#272),#465);
#11=SHAPE_REPRESENTATION_RELATIONSHIP('SRR','None',#477,#12);
#12=ADVANCED_BREP_SHAPE_REPRESENTATION('',(#13),#464);
#13=MANIFOLD_SOLID_BREP('Solid1',#289);
#14=FACE_BOUND('',#50,.T.);
#15=FACE_BOUND('',#51,.T.);
#16=FACE_BOUND('',#58,.T.);
#17=FACE_BOUND('',#59,.T.);
#18=PLANE('',#294);
#19=PLANE('',#295);
#20=PLANE('',#296);
#21=PLANE('',#300);
#22=PLANE('',#304);
#23=PLANE('',#308);
#24=PLANE('',#309);
#25=PLANE('',#310);
#26=PLANE('',#311);
#27=PLANE('',#312);
#28=FACE_OUTER_BOUND('',#42,.T.);
#29=FACE_OUTER_BOUND('',#43,.T.);
#30=FACE_OUTER_BOUND('',#44,.T.);
#31=FACE_OUTER_BOUND('',#45,.T.);
#32=FACE_OUTER_BOUND('',#46,.T.);
#33=FACE_OUTER_BOUND('',#47,.T.);
#34=FACE_OUTER_BOUND('',#48,.T.);
#35=FACE_OUTER_BOUND('',#49,.T.);
#36=FACE_OUTER_BOUND('',#52,.T.);
#37=FACE_OUTER_BOUND('',#53,.T.);
#38=FACE_OUTER_BOUND('',#54,.T.);
#39=FACE_OUTER_BOUND('',#55,.T.);
#40=FACE_OUTER_BOUND('',#56,.T.);
#41=FACE_OUTER_BOUND('',#57,.T.);
#42=EDGE_LOOP('',(#184,#185,#186,#187));
#43=EDGE_LOOP('',(#188,#189,#190,#191));
#44=EDGE_LOOP('',(#192,#193,#194,#195));
#45=EDGE_LOOP('',(#196,#197,#198,#199));
#46=EDGE_LOOP('',(#200,#201,#202,#203));
#47=EDGE_LOOP('',(#204,#205,#206,#207));
#48=EDGE_LOOP('',(#208,#209,#210,#211));
#49=EDGE_LOOP('',(#212,#213,#214,#215));
#50=EDGE_LOOP('',(#216,#217,#218,#219));
#51=EDGE_LOOP('',(#220,#221,#222,#223));
#52=EDGE_LOOP('',(#224,#225,#226,#227));
#53=EDGE_LOOP('',(#228,#229,#230,#231));
#54=EDGE_LOOP('',(#232,#233,#234,#235));
#55=EDGE_LOOP('',(#236,#237,#238,#239));
#56=EDGE_LOOP('',(#240,#241,#242,#243));
#57=EDGE_LOOP('',(#244,#245,#246,#247));
#58=EDGE_LOOP('',(#248,#249,#250,#251));
#59=EDGE_LOOP('',(#252,#253,#254,#255));
#60=LINE('',#393,#88);
#61=LINE('',#396,#89);
#62=LINE('',#399,#90);
#63=LINE('',#401,#91);
#64=LINE('',#402,#92);
#65=LINE('',#405,#93);
#66=LINE('',#407,#94);
#67=LINE('',#408,#95);
#68=LINE('',#412,#96);
#69=LINE('',#414,#97);
#70=LINE('',#416,#98);
#71=LINE('',#417,#99);
#72=LINE('',#422,#100);
#73=LINE('',#426,#101);
#74=LINE('',#428,#102);
#75=LINE('',#429,#103);
#76=LINE('',#436,#104);
#77=LINE('',#438,#105);
#78=LINE('',#440,#106);
#79=LINE('',#441,#107);
#80=LINE('',#448,#108);
#81=LINE('',#449,#109);
#82=LINE('',#450,#110);
#83=LINE('',#453,#111);
#84=LINE('',#454,#112);
#85=LINE('',#457,#113);
#86=LINE('',#458,#114);
#87=LINE('',#460,#115);
#88=VECTOR('',#319,0.074);
#89=VECTOR('',#322,0.074);
#90=VECTOR('',#325,0.09375);
#91=VECTOR('',#326,0.074);
#92=VECTOR('',#327,0.09375);
#93=VECTOR('',#330,0.09375);
#94=VECTOR('',#331,0.09375);
#95=VECTOR('',#332,0.074);
#96=VECTOR('',#335,0.09375);
#97=VECTOR('',#336,0.074);
#98=VECTOR('',#337,0.09375);
#99=VECTOR('',#338,0.074);
#100=VECTOR('',#343,0.074);
#101=VECTOR('',#348,0.09375);
#102=VECTOR('',#349,0.074);
#103=VECTOR('',#350,0.09375);
#104=VECTOR('',#359,8.);
#105=VECTOR('',#360,8.);
#106=VECTOR('',#361,8.);
#107=VECTOR('',#362,8.);
#108=VECTOR('',#371,8.);
#109=VECTOR('',#372,0.074);
#110=VECTOR('',#373,0.074);
#111=VECTOR('',#376,8.);
#112=VECTOR('',#377,0.074);
#113=VECTOR('',#380,8.);
#114=VECTOR('',#381,0.074);
#115=VECTOR('',#384,8.);
#116=CIRCLE('',#292,0.140625);
#117=CIRCLE('',#293,0.140625);
#118=CIRCLE('',#298,0.140625);
#119=CIRCLE('',#299,0.140625);
#120=CIRCLE('',#302,0.140625);
#121=CIRCLE('',#303,0.140625);
#122=CIRCLE('',#305,0.140625);
#123=CIRCLE('',#307,0.140625);
#124=VERTEX_POINT('',#389);
#125=VERTEX_POINT('',#390);
#126=VERTEX_POINT('',#392);
#127=VERTEX_POINT('',#394);
#128=VERTEX_POINT('',#398);
#129=VERTEX_POINT('',#400);
#130=VERTEX_POINT('',#404);
#131=VERTEX_POINT('',#406);
#132=VERTEX_POINT('',#410);
#133=VERTEX_POINT('',#411);
#134=VERTEX_POINT('',#413);
#135=VERTEX_POINT('',#415);
#136=VERTEX_POINT('',#419);
#137=VERTEX_POINT('',#421);
#138=VERTEX_POINT('',#425);
#139=VERTEX_POINT('',#427);
#140=VERTEX_POINT('',#434);
#141=VERTEX_POINT('',#435);
#142=VERTEX_POINT('',#437);
#143=VERTEX_POINT('',#439);
#144=VERTEX_POINT('',#446);
#145=VERTEX_POINT('',#447);
#146=VERTEX_POINT('',#452);
#147=VERTEX_POINT('',#456);
#148=EDGE_CURVE('',#124,#125,#116,.T.);
#149=EDGE_CURVE('',#124,#126,#60,.T.);
#150=EDGE_CURVE('',#127,#126,#117,.T.);
#151=EDGE_CURVE('',#125,#127,#61,.T.);
#152=EDGE_CURVE('',#128,#124,#62,.T.);
#153=EDGE_CURVE('',#129,#128,#63,.T.);
#154=EDGE_CURVE('',#126,#129,#64,.T.);
#155=EDGE_CURVE('',#125,#130,#65,.T.);
#156=EDGE_CURVE('',#131,#127,#66,.T.);
#157=EDGE_CURVE('',#131,#130,#67,.T.);
#158=EDGE_CURVE('',#132,#133,#68,.T.);
#159=EDGE_CURVE('',#132,#134,#69,.T.);
#160=EDGE_CURVE('',#135,#134,#70,.T.);
#161=EDGE_CURVE('',#135,#133,#71,.T.);
#162=EDGE_CURVE('',#136,#132,#118,.T.);
#163=EDGE_CURVE('',#136,#137,#72,.T.);
#164=EDGE_CURVE('',#134,#137,#119,.T.);
#165=EDGE_CURVE('',#138,#136,#73,.T.);
#166=EDGE_CURVE('',#139,#138,#74,.T.);
#167=EDGE_CURVE('',#137,#139,#75,.T.);
#168=EDGE_CURVE('',#129,#131,#120,.T.);
#169=EDGE_CURVE('',#130,#128,#121,.T.);
#170=EDGE_CURVE('',#140,#141,#76,.T.);
#171=EDGE_CURVE('',#141,#142,#77,.T.);
#172=EDGE_CURVE('',#142,#143,#78,.T.);
#173=EDGE_CURVE('',#143,#140,#79,.T.);
#174=EDGE_CURVE('',#139,#135,#122,.T.);
#175=EDGE_CURVE('',#133,#138,#123,.T.);
#176=EDGE_CURVE('',#144,#145,#80,.T.);
#177=EDGE_CURVE('',#142,#145,#81,.T.);
#178=EDGE_CURVE('',#141,#144,#82,.T.);
#179=EDGE_CURVE('',#145,#146,#83,.T.);
#180=EDGE_CURVE('',#143,#146,#84,.T.);
#181=EDGE_CURVE('',#146,#147,#85,.T.);
#182=EDGE_CURVE('',#140,#147,#86,.T.);
#183=EDGE_CURVE('',#147,#144,#87,.T.);
#184=ORIENTED_EDGE('',*,*,#148,.F.);
#185=ORIENTED_EDGE('',*,*,#149,.T.);
#186=ORIENTED_EDGE('',*,*,#150,.F.);
#187=ORIENTED_EDGE('',*,*,#151,.F.);
#188=ORIENTED_EDGE('',*,*,#152,.F.);
#189=ORIENTED_EDGE('',*,*,#153,.F.);
#190=ORIENTED_EDGE('',*,*,#154,.F.);
#191=ORIENTED_EDGE('',*,*,#149,.F.);
#192=ORIENTED_EDGE('',*,*,#155,.F.);
#193=ORIENTED_EDGE('',*,*,#151,.T.);
#194=ORIENTED_EDGE('',*,*,#156,.F.);
#195=ORIENTED_EDGE('',*,*,#157,.T.);
#196=ORIENTED_EDGE('',*,*,#158,.F.);
#197=ORIENTED_EDGE('',*,*,#159,.T.);
#198=ORIENTED_EDGE('',*,*,#160,.F.);
#199=ORIENTED_EDGE('',*,*,#161,.T.);
#200=ORIENTED_EDGE('',*,*,#162,.F.);
#201=ORIENTED_EDGE('',*,*,#163,.T.);
#202=ORIENTED_EDGE('',*,*,#164,.F.);
#203=ORIENTED_EDGE('',*,*,#159,.F.);
#204=ORIENTED_EDGE('',*,*,#165,.F.);
#205=ORIENTED_EDGE('',*,*,#166,.F.);
#206=ORIENTED_EDGE('',*,*,#167,.F.);
#207=ORIENTED_EDGE('',*,*,#163,.F.);
#208=ORIENTED_EDGE('',*,*,#157,.F.);
#209=ORIENTED_EDGE('',*,*,#168,.F.);
#210=ORIENTED_EDGE('',*,*,#153,.T.);
#211=ORIENTED_EDGE('',*,*,#169,.F.);
#212=ORIENTED_EDGE('',*,*,#170,.T.);
#213=ORIENTED_EDGE('',*,*,#171,.T.);
#214=ORIENTED_EDGE('',*,*,#172,.T.);
#215=ORIENTED_EDGE('',*,*,#173,.T.);
#216=ORIENTED_EDGE('',*,*,#156,.T.);
#217=ORIENTED_EDGE('',*,*,#150,.T.);
#218=ORIENTED_EDGE('',*,*,#154,.T.);
#219=ORIENTED_EDGE('',*,*,#168,.T.);
#220=ORIENTED_EDGE('',*,*,#160,.T.);
#221=ORIENTED_EDGE('',*,*,#164,.T.);
#222=ORIENTED_EDGE('',*,*,#167,.T.);
#223=ORIENTED_EDGE('',*,*,#174,.T.);
#224=ORIENTED_EDGE('',*,*,#161,.F.);
#225=ORIENTED_EDGE('',*,*,#174,.F.);
#226=ORIENTED_EDGE('',*,*,#166,.T.);
#227=ORIENTED_EDGE('',*,*,#175,.F.);
#228=ORIENTED_EDGE('',*,*,#176,.T.);
#229=ORIENTED_EDGE('',*,*,#177,.F.);
#230=ORIENTED_EDGE('',*,*,#171,.F.);
#231=ORIENTED_EDGE('',*,*,#178,.T.);
#232=ORIENTED_EDGE('',*,*,#179,.T.);
#233=ORIENTED_EDGE('',*,*,#180,.F.);
#234=ORIENTED_EDGE('',*,*,#172,.F.);
#235=ORIENTED_EDGE('',*,*,#177,.T.);
#236=ORIENTED_EDGE('',*,*,#181,.T.);
#237=ORIENTED_EDGE('',*,*,#182,.F.);
#238=ORIENTED_EDGE('',*,*,#173,.F.);
#239=ORIENTED_EDGE('',*,*,#180,.T.);
#240=ORIENTED_EDGE('',*,*,#183,.T.);
#241=ORIENTED_EDGE('',*,*,#178,.F.);
#242=ORIENTED_EDGE('',*,*,#170,.F.);
#243=ORIENTED_EDGE('',*,*,#182,.T.);
#244=ORIENTED_EDGE('',*,*,#176,.F.);
#245=ORIENTED_EDGE('',*,*,#183,.F.);
#246=ORIENTED_EDGE('',*,*,#181,.F.);
#247=ORIENTED_EDGE('',*,*,#179,.F.);
#248=ORIENTED_EDGE('',*,*,#155,.T.);
#249=ORIENTED_EDGE('',*,*,#169,.T.);
#250=ORIENTED_EDGE('',*,*,#152,.T.);
#251=ORIENTED_EDGE('',*,*,#148,.T.);
#252=ORIENTED_EDGE('',*,*,#158,.T.);
#253=ORIENTED_EDGE('',*,*,#175,.T.);
#254=ORIENTED_EDGE('',*,*,#165,.T.);
#255=ORIENTED_EDGE('',*,*,#162,.T.);
#256=CYLINDRICAL_SURFACE('',#291,0.140625);
#257=CYLINDRICAL_SURFACE('',#297,0.140625);
#258=CYLINDRICAL_SURFACE('',#301,0.140625);
#259=CYLINDRICAL_SURFACE('',#306,0.140625);
#260=STYLED_ITEM('',(#486),#275);
#261=STYLED_ITEM('',(#486),#276);
#262=STYLED_ITEM('',(#486),#277);
#263=STYLED_ITEM('',(#486),#278);
#264=STYLED_ITEM('',(#486),#279);
#265=STYLED_ITEM('',(#486),#280);
#266=STYLED_ITEM('',(#486),#281);
#267=STYLED_ITEM('',(#486),#282);
#268=STYLED_ITEM('',(#486),#283);
#269=STYLED_ITEM('',(#486),#284);
#270=STYLED_ITEM('',(#486),#285);
#271=STYLED_ITEM('',(#486),#286);
#272=STYLED_ITEM('',(#486),#287);
#273=STYLED_ITEM('',(#486),#288);
#274=STYLED_ITEM('',(#486),#13);
#275=ADVANCED_FACE('',(#28),#256,.F.);
#276=ADVANCED_FACE('',(#29),#18,.F.);
#277=ADVANCED_FACE('',(#30),#19,.F.);
#278=ADVANCED_FACE('',(#31),#20,.F.);
#279=ADVANCED_FACE('',(#32),#257,.F.);
#280=ADVANCED_FACE('',(#33),#21,.F.);
#281=ADVANCED_FACE('',(#34),#258,.F.);
#282=ADVANCED_FACE('',(#35,#14,#15),#22,.F.);
#283=ADVANCED_FACE('',(#36),#259,.F.);
#284=ADVANCED_FACE('',(#37),#23,.T.);
#285=ADVANCED_FACE('',(#38),#24,.T.);
#286=ADVANCED_FACE('',(#39),#25,.T.);
#287=ADVANCED_FACE('',(#40),#26,.T.);
#288=ADVANCED_FACE('',(#41,#16,#17),#27,.T.);
#289=CLOSED_SHELL('',(#275,#276,#277,#278,#279,#280,#281,#282,#283,#284,
#285,#286,#287,#288));
#290=AXIS2_PLACEMENT_3D('placement',#387,#313,#314);
#291=AXIS2_PLACEMENT_3D('',#388,#315,#316);
#292=AXIS2_PLACEMENT_3D('',#391,#317,#318);
#293=AXIS2_PLACEMENT_3D('',#395,#320,#321);
#294=AXIS2_PLACEMENT_3D('',#397,#323,#324);
#295=AXIS2_PLACEMENT_3D('',#403,#328,#329);
#296=AXIS2_PLACEMENT_3D('',#409,#333,#334);
#297=AXIS2_PLACEMENT_3D('',#418,#339,#340);
#298=AXIS2_PLACEMENT_3D('',#420,#341,#342);
#299=AXIS2_PLACEMENT_3D('',#423,#344,#345);
#300=AXIS2_PLACEMENT_3D('',#424,#346,#347);
#301=AXIS2_PLACEMENT_3D('',#430,#351,#352);
#302=AXIS2_PLACEMENT_3D('',#431,#353,#354);
#303=AXIS2_PLACEMENT_3D('',#432,#355,#356);
#304=AXIS2_PLACEMENT_3D('',#433,#357,#358);
#305=AXIS2_PLACEMENT_3D('',#442,#363,#364);
#306=AXIS2_PLACEMENT_3D('',#443,#365,#366);
#307=AXIS2_PLACEMENT_3D('',#444,#367,#368);
#308=AXIS2_PLACEMENT_3D('',#445,#369,#370);
#309=AXIS2_PLACEMENT_3D('',#451,#374,#375);
#310=AXIS2_PLACEMENT_3D('',#455,#378,#379);
#311=AXIS2_PLACEMENT_3D('',#459,#382,#383);
#312=AXIS2_PLACEMENT_3D('',#461,#385,#386);
#313=DIRECTION('axis',(0.,0.,1.));
#314=DIRECTION('refdir',(1.,0.,0.));
#315=DIRECTION('center_axis',(0.,0.,-1.));
#316=DIRECTION('ref_axis',(0.,-1.,0.));
#317=DIRECTION('center_axis',(0.,0.,-1.));
#318=DIRECTION('ref_axis',(0.,-1.,0.));
#319=DIRECTION('',(0.,0.,-1.));
#320=DIRECTION('center_axis',(0.,0.,1.));
#321=DIRECTION('ref_axis',(0.,-1.,0.));
#322=DIRECTION('',(0.,0.,-1.));
#323=DIRECTION('center_axis',(-4.66235390918701E-16,1.,0.));
#324=DIRECTION('ref_axis',(1.,4.93494134445882E-16,0.));
#325=DIRECTION('',(1.,4.66235390918701E-16,0.));
#326=DIRECTION('',(0.,0.,1.));
#327=DIRECTION('',(-1.,-4.66235390918701E-16,0.));
#328=DIRECTION('center_axis',(4.66235390918701E-16,-1.,0.));
#329=DIRECTION('ref_axis',(-1.,-4.93494134445882E-16,0.));
#330=DIRECTION('',(-1.,-4.66235390918701E-16,0.));
#331=DIRECTION('',(1.,4.66235390918701E-16,0.));
#332=DIRECTION('',(0.,0.,1.));
#333=DIRECTION('center_axis',(4.66235390918701E-16,1.,0.));
#334=DIRECTION('ref_axis',(1.,-4.93494134445882E-16,0.));
#335=DIRECTION('',(1.,-4.66235390918701E-16,0.));
#336=DIRECTION('',(0.,0.,-1.));
#337=DIRECTION('',(-1.,4.66235390918701E-16,0.));
#338=DIRECTION('',(0.,0.,1.));
#339=DIRECTION('center_axis',(0.,0.,-1.));
#340=DIRECTION('ref_axis',(0.,-1.,0.));
#341=DIRECTION('center_axis',(0.,0.,-1.));
#342=DIRECTION('ref_axis',(0.,-1.,0.));
#343=DIRECTION('',(0.,0.,-1.));
#344=DIRECTION('center_axis',(0.,0.,1.));
#345=DIRECTION('ref_axis',(0.,-1.,0.));
#346=DIRECTION('center_axis',(-4.66235390918701E-16,-1.,0.));
#347=DIRECTION('ref_axis',(-1.,4.93494134445882E-16,0.));
#348=DIRECTION('',(-1.,4.66235390918701E-16,0.));
#349=DIRECTION('',(0.,0.,1.));
#350=DIRECTION('',(1.,-4.66235390918701E-16,0.));
#351=DIRECTION('center_axis',(0.,0.,-1.));
#352=DIRECTION('ref_axis',(-1.,0.,0.));
#353=DIRECTION('center_axis',(0.,0.,1.));
#354=DIRECTION('ref_axis',(-1.,0.,0.));
#355=DIRECTION('center_axis',(0.,0.,-1.));
#356=DIRECTION('ref_axis',(-1.,0.,0.));
#357=DIRECTION('center_axis',(0.,0.,1.));
#358=DIRECTION('ref_axis',(1.,0.,0.));
#359=DIRECTION('',(-1.,-1.74838271594513E-16,0.));
#360=DIRECTION('',(0.,1.,0.));
#361=DIRECTION('',(1.,1.74838271594513E-16,0.));
#362=DIRECTION('',(0.,-1.,0.));
#363=DIRECTION('center_axis',(0.,0.,1.));
#364=DIRECTION('ref_axis',(-1.,0.,0.));
#365=DIRECTION('center_axis',(0.,0.,-1.));
#366=DIRECTION('ref_axis',(-1.,0.,0.));
#367=DIRECTION('center_axis',(0.,0.,-1.));
#368=DIRECTION('ref_axis',(-1.,0.,0.));
#369=DIRECTION('center_axis',(-1.,0.,0.));
#370=DIRECTION('ref_axis',(0.,0.,1.));
#371=DIRECTION('',(0.,1.,0.));
#372=DIRECTION('',(0.,0.,1.));
#373=DIRECTION('',(0.,0.,1.));
#374=DIRECTION('center_axis',(-1.74838271594513E-16,1.,0.));
#375=DIRECTION('ref_axis',(0.,0.,1.));
#376=DIRECTION('',(1.,1.74838271594513E-16,0.));
#377=DIRECTION('',(0.,0.,1.));
#378=DIRECTION('center_axis',(1.,0.,0.));
#379=DIRECTION('ref_axis',(0.,0.,-1.));
#380=DIRECTION('',(0.,-1.,0.));
#381=DIRECTION('',(0.,0.,1.));
#382=DIRECTION('center_axis',(1.74838271594513E-16,-1.,0.));
#383=DIRECTION('ref_axis',(0.,0.,-1.));
#384=DIRECTION('',(-1.,-1.74838271594513E-16,0.));
#385=DIRECTION('center_axis',(0.,0.,1.));
#386=DIRECTION('ref_axis',(1.,0.,0.));
#387=CARTESIAN_POINT('',(0.,0.,0.));
#388=CARTESIAN_POINT('Origin',(-2.625,3.96300513296731E-17,0.074));
#389=CARTESIAN_POINT('',(-2.625,0.140625,0.074));
#390=CARTESIAN_POINT('',(-2.625,-0.140625,0.074));
#391=CARTESIAN_POINT('Origin',(-2.625,3.96300513296731E-17,0.074));
#392=CARTESIAN_POINT('',(-2.625,0.140625,0.));
#393=CARTESIAN_POINT('',(-2.625,0.140625,0.074));
#394=CARTESIAN_POINT('',(-2.625,-0.140625,0.));
#395=CARTESIAN_POINT('Origin',(-2.625,3.96300513296731E-17,0.));
#396=CARTESIAN_POINT('',(-2.625,-0.140625,0.074));
#397=CARTESIAN_POINT('Origin',(-2.71875,0.140625,0.074));
#398=CARTESIAN_POINT('',(-2.71875,0.140625,0.074));
#399=CARTESIAN_POINT('',(-1.359375,0.140625,0.074));
#400=CARTESIAN_POINT('',(-2.71875,0.140625,0.));
#401=CARTESIAN_POINT('',(-2.71875,0.140625,0.074));
#402=CARTESIAN_POINT('',(-1.359375,0.140625,0.));
#403=CARTESIAN_POINT('Origin',(-2.625,-0.140625,0.074));
#404=CARTESIAN_POINT('',(-2.71875,-0.140625,0.074));
#405=CARTESIAN_POINT('',(-1.3125,-0.140624999999999,0.074));
#406=CARTESIAN_POINT('',(-2.71875,-0.140625,0.));
#407=CARTESIAN_POINT('',(-1.3125,-0.140624999999999,0.));
#408=CARTESIAN_POINT('',(-2.71875,-0.140625,0.074));
#409=CARTESIAN_POINT('Origin',(2.625,0.140625,0.074));
#410=CARTESIAN_POINT('',(2.625,0.140625,0.074));
#411=CARTESIAN_POINT('',(2.71875,0.140625,0.074));
#412=CARTESIAN_POINT('',(1.3125,0.140625,0.074));
#413=CARTESIAN_POINT('',(2.625,0.140625,0.));
#414=CARTESIAN_POINT('',(2.625,0.140625,0.074));
#415=CARTESIAN_POINT('',(2.71875,0.140625,0.));
#416=CARTESIAN_POINT('',(1.3125,0.140625,0.));
#417=CARTESIAN_POINT('',(2.71875,0.140625,0.074));
#418=CARTESIAN_POINT('Origin',(2.625,3.96300513296731E-17,0.074));
#419=CARTESIAN_POINT('',(2.625,-0.140625,0.074));
#420=CARTESIAN_POINT('Origin',(2.625,3.96300513296731E-17,0.074));
#421=CARTESIAN_POINT('',(2.625,-0.140625,0.));
#422=CARTESIAN_POINT('',(2.625,-0.140625,0.074));
#423=CARTESIAN_POINT('Origin',(2.625,3.96300513296731E-17,0.));
#424=CARTESIAN_POINT('Origin',(2.71875,-0.140625,0.074));
#425=CARTESIAN_POINT('',(2.71875,-0.140625,0.074));
#426=CARTESIAN_POINT('',(1.359375,-0.140624999999999,0.074));
#427=CARTESIAN_POINT('',(2.71875,-0.140625,0.));
#428=CARTESIAN_POINT('',(2.71875,-0.140625,0.074));
#429=CARTESIAN_POINT('',(1.359375,-0.140624999999999,0.));
#430=CARTESIAN_POINT('Origin',(-2.71875,0.,0.074));
#431=CARTESIAN_POINT('Origin',(-2.71875,0.,0.));
#432=CARTESIAN_POINT('Origin',(-2.71875,0.,0.074));
#433=CARTESIAN_POINT('Origin',(0.,-1.58943883267739E-16,0.));
#434=CARTESIAN_POINT('',(4.,-4.,0.));
#435=CARTESIAN_POINT('',(-4.,-4.,0.));
#436=CARTESIAN_POINT('',(4.,-4.,0.));
#437=CARTESIAN_POINT('',(-4.,4.,0.));
#438=CARTESIAN_POINT('',(-4.,-4.,0.));
#439=CARTESIAN_POINT('',(4.,4.,0.));
#440=CARTESIAN_POINT('',(-4.,4.,0.));
#441=CARTESIAN_POINT('',(4.,4.,0.));
#442=CARTESIAN_POINT('Origin',(2.71875,0.,0.));
#443=CARTESIAN_POINT('Origin',(2.71875,0.,0.074));
#444=CARTESIAN_POINT('Origin',(2.71875,0.,0.074));
#445=CARTESIAN_POINT('Origin',(-4.,-4.,0.));
#446=CARTESIAN_POINT('',(-4.,-4.,0.074));
#447=CARTESIAN_POINT('',(-4.,4.,0.074));
#448=CARTESIAN_POINT('',(-4.,-4.,0.074));
#449=CARTESIAN_POINT('',(-4.,4.,0.));
#450=CARTESIAN_POINT('',(-4.,-4.,0.));
#451=CARTESIAN_POINT('Origin',(-4.,4.,0.));
#452=CARTESIAN_POINT('',(4.,4.,0.074));
#453=CARTESIAN_POINT('',(-4.,4.,0.074));
#454=CARTESIAN_POINT('',(4.,4.,0.));
#455=CARTESIAN_POINT('Origin',(4.,4.,0.));
#456=CARTESIAN_POINT('',(4.,-4.,0.074));
#457=CARTESIAN_POINT('',(4.,4.,0.074));
#458=CARTESIAN_POINT('',(4.,-4.,0.));
#459=CARTESIAN_POINT('Origin',(4.,-4.,0.));
#460=CARTESIAN_POINT('',(4.,-4.,0.074));
#461=CARTESIAN_POINT('Origin',(0.,-1.74838271594513E-16,0.074));
#462=UNCERTAINTY_MEASURE_WITH_UNIT(LENGTH_MEASURE(0.000393700787401575),
#466,'DISTANCE_ACCURACY_VALUE',
'Maximum model space distance between geometric entities at asserted c
onnectivities');
#463=UNCERTAINTY_MEASURE_WITH_UNIT(LENGTH_MEASURE(1.E-6),#467,
'DISTANCE_ACCURACY_VALUE',
'Maximum model space distance between geometric entities at asserted c
onnectivities');
#464=(
GEOMETRIC_REPRESENTATION_CONTEXT(3)
GLOBAL_UNCERTAINTY_ASSIGNED_CONTEXT((#462))
GLOBAL_UNIT_ASSIGNED_CONTEXT((#466,#472,#469))
REPRESENTATION_CONTEXT('','3D')
);
#465=(
GEOMETRIC_REPRESENTATION_CONTEXT(3)
GLOBAL_UNCERTAINTY_ASSIGNED_CONTEXT((#463))
GLOBAL_UNIT_ASSIGNED_CONTEXT((#467,#472,#469))
REPRESENTATION_CONTEXT('','3D')
);
#466=(
CONVERSION_BASED_UNIT('__CONSTANT UNIT inch',#468)
LENGTH_UNIT()
NAMED_UNIT(#471)
);
#467=(
LENGTH_UNIT()
NAMED_UNIT(*)
SI_UNIT(.MILLI.,.METRE.)
);
#468=LENGTH_MEASURE_WITH_UNIT(LENGTH_MEASURE(25.4),#467);
#469=(
NAMED_UNIT(*)
SI_UNIT($,.STERADIAN.)
SOLID_ANGLE_UNIT()
);
#470=DIMENSIONAL_EXPONENTS(0.,0.,0.,0.,0.,0.,0.);
#471=DIMENSIONAL_EXPONENTS(1.,0.,0.,0.,0.,0.,0.);
#472=(
CONVERSION_BASED_UNIT('degree',#474)
NAMED_UNIT(#470)
PLANE_ANGLE_UNIT()
);
#473=(
NAMED_UNIT(*)
PLANE_ANGLE_UNIT()
SI_UNIT($,.RADIAN.)
);
#474=PLANE_ANGLE_MEASURE_WITH_UNIT(PLANE_ANGLE_MEASURE(0.01745329252),#473);
#475=SHAPE_DEFINITION_REPRESENTATION(#476,#477);
#476=PRODUCT_DEFINITION_SHAPE('',$,#479);
#477=SHAPE_REPRESENTATION('',(#290),#464);
#478=PRODUCT_DEFINITION_CONTEXT('part definition',#483,'design');
#479=PRODUCT_DEFINITION('SCF0606','SCF0606',#480,#478);
#480=PRODUCT_DEFINITION_FORMATION('',$,#485);
#481=PRODUCT_RELATED_PRODUCT_CATEGORY('SCF0606','SCF0606',(#485));
#482=APPLICATION_PROTOCOL_DEFINITION('international standard',
'automotive_design',2009,#483);
#483=APPLICATION_CONTEXT(
'Core Data for Automotive Mechanical Design Process');
#484=PRODUCT_CONTEXT('part definition',#483,'mechanical');
#485=PRODUCT('SCF0606','SCF0606',$,(#484));
#486=PRESENTATION_STYLE_ASSIGNMENT((#487));
#487=SURFACE_STYLE_USAGE(.BOTH.,#488);
#488=SURFACE_SIDE_STYLE('',(#489));
#489=SURFACE_STYLE_FILL_AREA(#490);
#490=FILL_AREA_STYLE('',(#491));
#491=FILL_AREA_STYLE_COLOUR('',#492);
#492=COLOUR_RGB('',0.63921568627451,0.63921568627451,0.686274509803922);
ENDSEC;
END-ISO-10303-21;
