  0
SECTION
  2
HEADER
  9
$ACADVER
  1
AC1009
  9
$INSBASE
 10
0.0
 20
0.0
 30
0.0
  9
$EXTMIN
 10
-7.071349
 20
-9.899893
 30
0.0
  9
$EXTMAX
 10
36.928651
 20
24.100107
 30
0.0
  9
$LIMMIN
 10
0.0
 20
0.0
  9
$LIMMAX
 10
11.0
 20
8.5
  9
$ORTHOMODE
 70
     0
  9
$REGENMODE
 70
     0
  9
$FILLMODE
 70
     0
  9
$QTEXTMODE
 70
     0
  9
$MIRRTEXT
 70
     1
  9
$DRAGMODE
 70
     2
  9
$LTSCALE
 40
0.19
  9
$OSMODE
 70
     0
  9
$ATTMODE
 70
     1
  9
$TEXTSIZE
 40
0.18
  9
$TRACEWID
 40
0.05
  9
$TEXTSTYLE
  7
MASTER
  9
$CLAYER
  8
OBJECT
  9
$CELTYPE
  6
BYLAYER
  9
$CECOLOR
 62
   256
  9
$DIMSCALE
 40
1.0
  9
$DIMASZ
 40
0.18
  9
$DIMEXO
 40
0.063
  9
$DIMDLI
 40
0.38
  9
$DIMRND
 40
0.0
  9
$DIMDLE
 40
0.0
  9
$DIMEXE
 40
0.18
  9
$DIMTP
 40
0.0
  9
$DIMTM
 40
0.0
  9
$DIMTXT
 40
0.125
  9
$DIMCEN
 40
-0.09
  9
$DIMTSZ
 40
0.0
  9
$DIMTOL
 70
     0
  9
$DIMLIM
 70
     0
  9
$DIMTIH
 70
     1
  9
$DIMTOH
 70
     1
  9
$DIMSE1
 70
     0
  9
$DIMSE2
 70
     0
  9
$DIMTAD
 70
     0
  9
$DIMZIN
 70
     4
  9
$DIMBLK
  1

  9
$DIMASO
 70
     1
  9
$DIMSHO
 70
     1
  9
$DIMPOST
  1

  9
$DIMAPOST
  1
mm
  9
$DIMALT
 70
     0
  9
$DIMALTD
 70
     1
  9
$DIMALTF
 40
25.4
  9
$DIMLFAC
 40
1.0
  9
$DIMTOFL
 70
     0
  9
$DIMTVP
 40
0.0
  9
$DIMTIX
 70
     0
  9
$DIMSOXD
 70
     0
  9
$DIMSAH
 70
     0
  9
$DIMBLK1
  1

  9
$DIMBLK2
  1

  9
$DIMSTYLE
  2
*UNNAMED
  9
$DIMCLRD
 70
     3
  9
$DIMCLRE
 70
     3
  9
$DIMCLRT
 70
     2
  9
$DIMTFAC
 40
1.0
  9
$DIMGAP
 40
0.09
  9
$LUNITS
 70
     2
  9
$LUPREC
 70
     8
  9
$SKETCHINC
 40
0.1
  9
$FILLETRAD
 40
0.0
  9
$AUNITS
 70
     0
  9
$AUPREC
 70
     8
  9
$MENU
  1
ACAD
  9
$ELEVATION
 40
0.0
  9
$PELEVATION
 40
0.0
  9
$THICKNESS
 40
0.0
  9
$LIMCHECK
 70
     0
  9
$BLIPMODE
 70
     0
  9
$CHAMFERA
 40
0.02
  9
$CHAMFERB
 40
0.02
  9
$SKPOLY
 70
     0
  9
$TDCREATE
 40
2450025.381821759
  9
$TDUPDATE
 40
2450030.355565624
  9
$TDINDWG
 40
0.2497112269
  9
$TDUSRTIMER
 40
0.2497112269
  9
$USRTIMER
 70
     1
  9
$ANGBASE
 50
0.0
  9
$ANGDIR
 70
     0
  9
$PDMODE
 70
     3
  9
$PDSIZE
 40
0.0
  9
$PLINEWID
 40
0.0
  9
$COORDS
 70
     1
  9
$SPLFRAME
 70
     0
  9
$SPLINETYPE
 70
     6
  9
$SPLINESEGS
 70
     8
  9
$ATTDIA
 70
     0
  9
$ATTREQ
 70
     1
  9
$HANDLING
 70
     1
  9
$HANDSEED
  5
B5967
  9
$SURFTAB1
 70
     6
  9
$SURFTAB2
 70
     6
  9
$SURFTYPE
 70
     6
  9
$SURFU
 70
     6
  9
$SURFV
 70
     6
  9
$UCSNAME
  2

  9
$UCSORG
 10
0.0
 20
0.0
 30
0.0
  9
$UCSXDIR
 10
1.0
 20
0.0
 30
0.0
  9
$UCSYDIR
 10
0.0
 20
1.0
 30
0.0
  9
$PUCSNAME
  2

  9
$PUCSORG
 10
0.0
 20
0.0
 30
0.0
  9
$PUCSXDIR
 10
1.0
 20
0.0
 30
0.0
  9
$PUCSYDIR
 10
0.0
 20
1.0
 30
0.0
  9
$USERI1
 70
     0
  9
$USERI2
 70
     0
  9
$USERI3
 70
     0
  9
$USERI4
 70
     0
  9
$USERI5
 70
     0
  9
$USERR1
 40
0.0
  9
$USERR2
 40
0.0
  9
$USERR3
 40
0.0
  9
$USERR4
 40
0.0
  9
$USERR5
 40
0.0
  9
$WORLDVIEW
 70
     1
  9
$SHADEDGE
 70
     3
  9
$SHADEDIF
 70
    70
  9
$TILEMODE
 70
     1
  9
$MAXACTVP
 70
    16
  9
$PINSBASE
 10
0.0
 20
0.0
 30
0.0
  9
$PLIMCHECK
 70
     0
  9
$PEXTMIN
 10
1.000000E+20
 20
1.000000E+20
 30
1.000000E+20
  9
$PEXTMAX
 10
-1.000000E+20
 20
-1.000000E+20
 30
-1.000000E+20
  9
$PLIMMIN
 10
0.0
 20
0.0
  9
$PLIMMAX
 10
12.0
 20
9.0
  9
$UNITMODE
 70
     0
  9
$VISRETAIN
 70
     0
  9
$PLINEGEN
 70
     0
  9
$PSLTSCALE
 70
     1
  9
$TREEDEPTH
 70
  3020
  9
$DWGCODEPAGE
  3
ascii
  0
ENDSEC
  0
SECTION
  2
TABLES
  0
TABLE
  2
VPORT
 70
     2
  0
VPORT
  2
*ACTIVE
 70
     0
 10
0.0
 20
0.0
 11
1.0
 21
1.0
 12
16.064172
 22
7.100107
 13
0.0
 23
0.0
 14
0.25
 24
0.25
 15
0.5
 25
0.5
 16
0.0
 26
0.0
 36
1.0
 17
0.0
 27
0.0
 37
0.0
 40
37.777778
 41
1.360913
 42
50.0
 43
0.0
 44
0.0
 50
0.0
 51
0.0
 71
     0
 72
  1000
 73
     1
 74
     0
 75
     0
 76
     0
 77
     0
 78
     0
  0
ENDTAB
  0
TABLE
  2
LTYPE
 70
     3
  0
LTYPE
  2
CONTINUOUS
 70
    64
  3
Solid line
 72
    65
 73
     0
 40
0.0
  0
LTYPE
  2
HIDDEN
 70
    64
  3
__ __ __ __ __ __ __ __ __ __ __ __ __ __ __ __
 72
    65
 73
     2
 40
0.375
 49
0.25
 49
-0.125
  0
LTYPE
  2
CENTER
 70
    64
  3
____ _ ____ _ ____ _ ____ _ ____ _ ____ _ ____ 
 72
    65
 73
     4
 40
2.0
 49
1.25
 49
-0.25
 49
0.25
 49
-0.25
  0
ENDTAB
  0
TABLE
  2
LAYER
 70
    10
  0
LAYER
  2
0
 70
    64
 62
     7
  6
CONTINUOUS
  0
LAYER
  2
ADCADD_FRZ
 70
    65
 62
     7
  6
CONTINUOUS
  0
LAYER
  2
OBJECT
 70
    64
 62
     7
  6
CONTINUOUS
  0
LAYER
  2
LINK
 70
    64
 62
     2
  6
CONTINUOUS
  0
LAYER
  2
CENTER
 70
    64
 62
     4
  6
CENTER
  0
LAYER
  2
HIDDEN
 70
     0
 62
     4
  6
HIDDEN
  0
LAYER
  2
CONSTRUCT
 70
    64
 62
    -1
  6
CONTINUOUS
  0
LAYER
  2
FEET_FEMALE
 70
    64
 62
   140
  6
CONTINUOUS
  0
LAYER
  2
FEET_MALE
 70
    64
 62
     7
  6
CONTINUOUS
  0
LAYER
  2
DEFPOINTS
 70
     0
 62
     7
  6
CONTINUOUS
  0
ENDTAB
  0
TABLE
  2
STYLE
 70
     4
  0
STYLE
  2
STANDARD
 70
    64
 40
0.0
 41
1.0
 50
0.0
 71
     0
 42
0.2
  3
txt
  4

  0
STYLE
  2
ROMANS
 70
    64
 40
0.0
 41
1.0
 50
0.0
 71
     0
 42
0.2
  3
romans
  4

  0
STYLE
  2
MASTER
 70
    64
 40
0.0
 41
0.8
 50
0.0
 71
     0
 42
0.18
  3
romans
  4

  0
STYLE
  2
SCRIPTS
 70
    64
 40
0.0
 41
1.0
 50
0.0
 71
     0
 42
0.2
  3
SCRIPTS
  4

  0
ENDTAB
  0
TABLE
  2
VIEW
 70
     1
  0
VIEW
  2
VIEW_LIMITS
 70
     0
 40
8.5
 10
5.5
 20
4.25
 41
11.0
 11
0.0
 21
0.0
 31
1.0
 12
0.0
 22
0.0
 32
0.0
 42
50.0
 43
0.0
 44
0.0
 50
0.0
 71
     0
  0
ENDTAB
  0
TABLE
  2
UCS
 70
     1
  0
UCS
  2
TB_HOLD
 70
     0
 10
0.0
 20
0.0
 30
0.0
 11
1.0
 21
0.0
 31
0.0
 12
0.0
 22
1.0
 32
0.0
  0
ENDTAB
  0
TABLE
  2
APPID
 70
     2
  0
APPID
  2
ACAD
 70
    64
  0
APPID
  2
TB_S_MPD
 70
    64
  0
ENDTAB
  0
TABLE
  2
DIMSTYLE
 70
     0
  0
ENDTAB
  0
ENDSEC
  0
SECTION
  2
BLOCKS
  0
BLOCK
  8
0
  5
5CBE
  2
ACAD
 70
    64
 10
0.0
 20
0.0
 30
0.0
  3
ACAD
  0
TEXT
  8
ADCADD_FRZ
  5
6313
 10
0.5
 20
8.5
 30
0.0
 40
0.125
  1
TOOLBOX_DEFAULT_VALUES
1001
TB_S_MPD
1070
   100
1000
TOOLBOX
1070
   101
1000
TOOLBOX 12.0 TOOLBOX 12.0
1070
   102
1000
0
1070
   103
1000
ANSI-Fraction
  0
TEXT
  8
ADCADD_FRZ
  5
6314
 10
0.5
 20
8.25
 30
0.0
 40
0.125
  1
CBORE_DEFAULT_VALUES
1001
TB_S_MPD
1070
   100
1000
CBORE
1070
   101
1000
TOOLBOX 12.0 CBORE 1.0
1070
   102
1000
Near side
1070
   103
1000
ANSI-Fraction
1070
   104
1000
shcs
1070
   105
1000
<Current>
1070
   106
1000
HIDDEN
1070
   107
1000
CENTER
1070
   300
1040
0.125
1070
   108
1000
1
1070
   109
1000
1
1070
   301
1040
0.03
1070
   110
1000
1
1070
   302
1040
0.0
1070
   303
1040
0.0
1070
   113
1000
1
1070
   117
1000
1
  0
TEXT
  8
ADCADD_FRZ
  5
6317
 10
0.5
 20
7.25
 30
0.0
 40
0.125
  1
RECT_DEFAULT_VALUES
1001
TB_S_MPD
1070
   100
1000
RECT
1070
   101
1000
TOOLBOX 12.0 RECT 12.0
1070
   102
1000
0
1070
   103
1000
0
1070
   301
1040
0.0
1070
   105
1000
0
1070
   302
1040
0.0
1070
   104
1000
0
1070
   303
1040
0.0
1070
   304
1040
0.0
1070
   305
1040
0.0
1070
   306
1040
0.0
1070
   307
1040
0.0
  0
TEXT
  8
ADCADD_FRZ
  5
631A
 10
0.5
 20
6.5
 30
0.0
 40
0.125
  1
CALC_DEFAULT_VALUES
1001
TB_S_MPD
1070
   100
1000
CALC
1070
   101
1000
TOOLBOX 12.0 CALC 12.0
1070
   102
1000
0
  0
TEXT
  8
ADCADD_FRZ
  5
631B
 10
0.5
 20
6.25
 30
0.0
 40
0.125
  1
CSINK_DEFAULT_VALUES
1001
TB_S_MPD
1070
   100
1000
CSINK
1070
   101
1000
TOOLBOX 12.0 CSINK 1.0
1070
   102
1000
Near side
1070
   103
1000
ANSI-Fraction
1070
   104
1000
fhcs
1070
   105
1000
<Current>
1070
   106
1000
HIDDEN
1070
   107
1000
CENTER
1070
   300
1040
0.125
1070
   108
1000
1
1070
   109
1000
1
1070
   301
1040
0.03
1070
   110
1000
1
1070
   302
1040
0.0
1070
   303
1040
0.0
1070
   113
1000
1
1070
   117
1000
1
  0
TEXT
  8
ADCADD_FRZ
  5
631C
 10
0.5
 20
6.0
 30
0.0
 40
0.125
  1
HOLE_DEFAULT_VALUES
1001
TB_S_MPD
1070
   100
1000
HOLE
1070
   101
1000
TOOLBOX 12.0 HOLE 1.0
1070
   102
1000
Near side
1070
   103
1000
ANSI-Fraction
1070
   104
1000
hole
1070
   110
1000
1
1070
   116
1000
1
1070
   117
1000
1
1070
   310
1040
118.0
1070
   105
1000
<Current>
1070
   106
1000
HIDDEN
1070
   107
1000
CENTER
1070
   300
1040
0.125
1070
   113
1000
1
1070
   108
1000
1
1070
   109
1000
1
1070
   302
1040
0.0
1070
   303
1040
0.0
1070
   304
1040
0.0
1070
   305
1040
0.0
  0
TEXT
  8
ADCADD_FRZ
  5
631D
 10
0.5
 20
5.75
 30
0.0
 40
0.125
  1
PTAP_DEFAULT_VALUES
1001
TB_S_MPD
1070
   100
1000
PTAP
1070
   101
1000
TOOLBOX 12.0 PTAP 1.0
1070
   102
1000
Near side
1070
   103
1000
ANSI-Fraction
1070
   104
1000
ptap
1070
   116
1000
1
1070
   117
1000
1
1070
   310
1040
118.0
1070
   105
1000
<Current>
1070
   106
1000
HIDDEN
1070
   107
1000
CENTER
1070
   300
1040
0.125
1070
   113
1000
1
1070
   108
1000
1
1070
   109
1000
1
1070
   302
1040
0.0
1070
   303
1040
0.0
1070
   304
1040
0.0
1070
   305
1040
0.0
  0
TEXT
  8
ADCADD_FRZ
  5
631E
 10
0.5
 20
5.5
 30
0.0
 40
0.125
  1
TAP_DEFAULT_VALUES
1001
TB_S_MPD
1070
   100
1000
TAP
1070
   101
1000
TOOLBOX 12.0 TAP 1.0
1070
   102
1000
Near side
1070
   103
1000
ANSI-Fraction
1070
   104
1000
tap_
1070
   110
1000
Plug
1070
   116
1000
1
1070
   117
1000
1
1070
   310
1040
118.0
1070
   105
1000
<Current>
1070
   106
1000
HIDDEN
1070
   107
1000
CENTER
1070
   300
1040
0.125
1070
   113
1000
1
1070
   108
1000
1
1070
   109
1000
1
1070
   302
1040
0.0
1070
   303
1040
0.0
1070
   304
1040
0.0
1070
   305
1040
0.0
  0
TEXT
  8
ADCADD_FRZ
  5
631F
 10
0.5
 20
5.25
 30
0.0
 40
0.125
  1
HCOIL_DEFAULT_VALUES
1001
TB_S_MPD
1070
   100
1000
HCOIL
1070
   101
1000
TOOLBOX 12.0 HCOIL 1.0
1070
   102
1000
Near side
1070
   103
1000
ANSI-Fraction
1070
   104
1000
hc10
1070
   116
1000
1
1070
   119
1000
1
1070
   117
1000
1
1070
   118
1000
1
1070
   310
1040
118.0
1070
   105
1000
<Current>
1070
   106
1000
HIDDEN
1070
   107
1000
CENTER
1070
   300
1040
0.125
1070
   113
1000
1
1070
   108
1000
1
1070
   109
1000
1
1070
   302
1040
0.0
1070
   303
1040
0.0
1070
   304
1040
0.0
1070
   305
1040
120.0
  0
TEXT
  8
ADCADD_FRZ
  5
6320
 10
0.469558
 20
5.000843
 30
0.0
 40
0.125
  1
BMAT_DEFAULT_VALUES
1001
TB_S_MPD
1070
   100
1000
BMAT
1070
   101
1000
TOOLBOX 12.0 BMAT 12.0
1070
   104
1000
Plain
1070
   300
1040
0.4375
1070
   105
1000
1
1070
   301
1040
0.0
1070
   106
1000
DEFAULT
1070
   107
1000
TOOLBOX
1070
   302
1040
0.125
1070
   303
1040
0.0625
1070
   108
1000
1
1070
   109
1000
1
1070
   110
1000
1
1070
   111
1000
1
1070
   112
1000
0
  0
TEXT
  8
ADCADD_FRZ
  5
6321
 10
0.471002
 20
4.758783
 30
0.0
 40
0.125
  1
TOLERANCE_DEFAULT_VALUES
1001
TB_S_MPD
1070
   100
1000
TOLERANCE
1070
   101
1000
TOOLBOX 12.0 TOLERANCE 12.0
1070
   102
1000
(0.005 0.0 0.01 0.0 0.01 0.0 0.01 0.005)
1070
   103
1000
(0.005 0.0 0.01 0.0 0.01 0.005)
  0
TEXT
  8
ADCADD_FRZ
  5
6322
 10
4.721756
 20
7.75
 30
0.0
 40
0.125
  1
HARDWARE1_DEFAULT_VALUES
1001
TB_S_MPD
1070
   100
1000
HARDWARE1
1070
   101
1000
TOOLBOX 12.0 HARDWARE1 1.0
1070
   102
1000
Near side
1070
   103
1000
ANSI-Fraction
1070
   104
1000
hhms
1070
   105
1000
<Current>
1070
   106
1000
HIDDEN
1070
   107
1000
CENTER
1070
   300
1040
0.125
1070
   108
1000
1
1070
   109
1000
1
1070
   113
1000
1
1070
   114
1000
1
1070
   117
1000
1
1070
   118
1000
1
1070
   119
1000
No slot-indent
  0
TEXT
  8
ADCADD_FRZ
  5
6323
 10
4.75
 20
8.5
 30
0.0
 40
0.125
  1
USERLIB_DEFAULT_VALUES
1001
TB_S_MPD
1070
   100
1000
USERLIB
1070
   101
1000
TOOLBOX 12.0 USERLIB 12.0
1070
   110
1000
1
1070
   111
1000
1
1070
   112
1000
1
1070
   113
1000
0
1070
   118
1000
1
1070
   114
1000
1
  0
TEXT
  8
ADCADD_FRZ
  5
6324
 10
4.721756
 20
8.23913
 30
0.0
 40
0.125
  1
PTDIM_DEFAULT_VALUES
1001
TB_S_MPD
1070
   100
1000
PTDIM
1070
   101
1000
TOOLBOX 12.0 PTDIM 12.0
1070
   102
1000
(
1070
   103
1000
0
1070
   105
1000
TOOLBOX
1070
   301
1040
0.125
1070
   108
1000
4
1070
   109
1000
0
1070
   110
1000
1
  0
TEXT
  8
ADCADD_FRZ
  5
6325
 10
4.721756
 20
8.0
 30
0.0
 40
0.125
  1
SLINE_DEFAULT_VALUES
1001
TB_S_MPD
1070
   100
1000
SLINE
1070
   101
1000
TOOLBOX 12.0 SLINE 12.0
1070
   102
1000
TOOLBOX
1070
   301
1040
0.25
1070
   302
1040
0.25
1070
   303
1040
0.5
1070
   103
1000
PHANTOM
1070
   104
1000
2
1070
   304
1040
0.0
  0
TEXT
  8
ADCADD_FRZ
  5
6326
 10
4.721756
 20
7.5
 30
0.0
 40
0.125
  1
HARDWARE2_DEFAULT_VALUES
1001
TB_S_MPD
1070
   100
1000
HARDWARE2
1070
   101
1000
TOOLBOX 12.0 HARDWARE2 1.0
1070
   102
1000
Near side
1070
   103
1000
ANSI-Fraction
1070
   104
1000
hnr_
1070
   105
1000
<Current>
1070
   106
1000
HIDDEN
1070
   107
1000
CENTER
1070
   300
1040
0.125
1070
   108
1000
1
1070
   109
1000
1
1070
   113
1000
1
1070
   117
1000
1
1070
   118
1000
1
1070
   119
1000
Chamfer
  0
TEXT
  8
ADCADD_FRZ
  5
6329
 10
4.721756
 20
7.25
 30
0.0
 40
0.125
  1
HARDWARE3_DEFAULT_VALUES
1001
TB_S_MPD
1070
   100
1000
HARDWARE3
1070
   101
1000
TOOLBOX 12.0 HARDWARE3 1.0
1070
   102
1000
Near side
1070
   103
1000
ANSI-Fraction
1070
   104
1000
dpm_
1070
   105
1000
<Current>
1070
   106
1000
HIDDEN
1070
   107
1000
CENTER
1070
   300
1040
0.125
1070
   108
1000
1
1070
   109
1000
1
1070
   113
1000
1
1070
   117
1000
1
1070
   118
1000
1
1070
   119
1000
No options
  0
TEXT
  8
ADCADD_FRZ
  5
632A
 10
4.721756
 20
7.0
 30
0.0
 40
0.125
  1
HARDWARE4_DEFAULT_VALUES
1001
TB_S_MPD
1070
   100
1000
HARDWARE4
1070
   101
1000
TOOLBOX 12.0 HARDWARE4 1.0
1070
   102
1000
Near side
1070
   103
1000
ANSI-Fraction
1070
   104
1000
ss4_
1070
   105
1000
<Current>
1070
   106
1000
HIDDEN
1070
   107
1000
CENTER
1070
   300
1040
0.125
1070
   108
1000
1
1070
   109
1000
1
1070
   113
1000
1
1070
   114
1000
1
1070
   117
1000
1
1070
   118
1000
1
1070
   119
1000
Hex
  0
TEXT
  8
ADCADD_FRZ
  5
632B
 10
4.721756
 20
6.75
 30
0.0
 40
0.125
  1
HARDWARE5_DEFAULT_VALUES
1001
TB_S_MPD
1070
   100
1000
HARDWARE5
1070
   101
1000
TOOLBOX 12.0 HARDWARE5 1.0
1070
   102
1000
Near side
1070
   103
1000
ANSI-Fraction
1070
   104
1000
fw1_
1070
   105
1000
<Current>
1070
   106
1000
HIDDEN
1070
   107
1000
CENTER
1070
   300
1040
0.125
1070
   108
1000
1
1070
   109
1000
1
1070
   113
1000
1
1070
   117
1000
1
1070
   118
1000
1
1070
   119
1000
No options
  0
TEXT
  8
ADCADD_FRZ
  5
632C
 10
4.721756
 20
6.5
 30
0.0
 40
0.125
  1
GEAR_DEFAULT_VALUES
1001
TB_S_MPD
1070
   100
1000
GEAR
1070
   101
1000
TOOLBOX 12.0 GEAR 12.0
1070
   103
1000
0
1070
   104
1000
0
1070
   105
1000
100
1070
   106
1000
6
1070
   300
1040
8.0
1070
   301
1040
14.5
1070
   107
1000
20000
  0
TEXT
  8
ADCADD_FRZ
  5
632D
 10
4.721756
 20
6.0
 30
0.0
 40
0.125
  1
CIRCAM_DEFAULT_VALUES
1001
TB_S_MPD
1070
   300
1040
1.0
1070
   100
1000
CIRCAM
1070
   101
1000
TOOLBOX 12.0 CIRCAM 12.0
1070
   103
1000
1
1070
   104
1000
1
1070
   105
1000
CT
1070
   106
1000
0
1070
   301
1040
1.0
1070
   302
1040
0.0005
  0
TEXT
  8
ADCADD_FRZ
  5
632E
 10
4.721756
 20
5.75
 30
0.0
 40
0.125
  1
LINCAM_DEFAULT_VALUES
1001
TB_S_MPD
1070
   300
1040
1.0
1070
   100
1000
LINCAM
1070
   101
1000
TOOLBOX 12.0 LINCAM 12.0
1070
   103
1000
1
1070
   104
1000
1
1070
   105
1000
LT
  0
TEXT
  8
ADCADD_FRZ
  5
6330
 10
4.721756
 20
6.25
 30
0.0
 40
0.125
  1
CAM_DEFAULT_VALUES
1001
TB_S_MPD
1070
   100
1000
CAM
1070
   101
1000
TOOLBOX 12.0 CAM 12.0
1070
   102
1000
0
  0
TEXT
  8
ADCADD_FRZ
  5
6331
 10
4.721756
 20
5.5
 30
0.0
 40
0.125
  1
THREAD_DEFAULT_VALUES
1001
TB_S_MPD
1070
   100
1000
THREAD
1070
   101
1000
TOOLBOX 12.0 THREAD 12.0
1070
   102
1000
0
1070
   103
1000
ANSI-Fraction
1070
   114
1000
1
  0
TEXT
  8
ADCADD_FRZ
  5
6333
 10
0.5
 20
6.75
 30
0.0
 40
0.125
  1
VERTEX_DEFAULT_VALUES
1001
TB_S_MPD
1070
   100
1000
VERTEX
1070
   101
1000
TOOLBOX 12.0 VERTEX 12.0
1070
   109
1000
1
1070
   110
1000
3
1070
   111
1000
0
1070
   112
1000
1
1070
   113
1000
0
1070
   114
1000
1
1070
   115
1000
0
1070
   116
1000
1
  0
TEXT
  8
ADCADD_FRZ
  5
6334
 10
4.721756
 20
5.250843
 30
0.0
 40
0.125
  1
SFINISH_DEFAULT_VALUES
1001
TB_S_MPD
1070
   100
1000
SFINISH
1070
   101
1000
TOOLBOX 12.0 SFINISH 12.0
1070
   102
1000
0
1070
   301
1040
0.0
1070
   302
1040
0.0
1070
   303
1040
0.0
  0
TEXT
  8
ADCADD_FRZ
  5
6335
 10
4.721756
 20
5.008783
 30
0.0
 40
0.125
  1
DDIM_DEFAULT_VALUES
1001
TB_S_MPD
1070
   100
1000
DDIM
1070
   101
1000
TOOLBOX 12.0 DDIM 12.0
1070
   104
1000
0
1070
   105
1000
0
1070
   106
1000
0
1070
   107
1000
0
1070
   108
1000
0
1070
   300
1040
2.0
1070
   109
1000
0
1070
   110
1000
1
1070
   301
1040
1.0
1070
   302
1040
0.0625
1070
   303
1040
0.0625
1070
   304
1040
0.25
1070
   305
1040
0.25
1070
   111
1000
1
1070
   112
1000
0
1070
   113
1000
0
1070
   114
1000
0
1070
   115
1000
TOOLBOX
1070
   306
1040
0.125
1070
   307
1040
0.125
1070
   116
1000
0
1070
   120
1000

1070
   121
1000

1070
   122
1000

1070
   123
1000
0
  0
TEXT
  8
ADCADD_FRZ
  5
6336
 10
0.5
 20
7.0
 30
0.0
 40
0.125
  1
SLOT_DEFAULT_VALUES
1001
TB_S_MPD
1070
   100
1000
SLOT
1070
   101
1000
TOOLBOX 12.0 SLOT 12.0
1070
   102
1000
Near side
1070
   120
1000
2
1070
   104
1000
1
1070
   116
1000
1
1070
   310
1040
0.0
1070
   306
1040
0.0
1070
   311
1040
0.0
1070
   308
1040
0.0
1070
   117
1000
1
1070
   105
1000
<Current>
1070
   106
1000
HIDDEN
1070
   107
1000
CENTER
1070
   300
1040
0.125
1070
   113
1000
1
1070
   108
1000
1
1070
   109
1000
1
  0
TEXT
  8
ADCADD_FRZ
  5
6338
 10
0.44056
 20
4.509625
 30
0.0
 40
0.125
  1
KWAY_DEFAULT_VALUES
1001
TB_S_MPD
1070
   100
1000
KWAY
1070
   101
1000
TOOLBOX 12.0 KWAY 1.0
1070
   102
1000
Near side
1070
   103
1000
ANSI-Fraction
1070
   104
1000
kws_
1070
   117
1000
1
1070
   110
1000
0
1070
   105
1000
<Current>
1070
   106
1000
HIDDEN
1070
   107
1000
CENTER
1070
   300
1040
0.125
1070
   113
1000
1
1070
   108
1000
1
1070
   109
1000
1
1070
   302
1040
0.0
1070
   303
1040
0.0
1070
   304
1040
0.0
1070
   305
1040
0.0
  0
TEXT
  8
ADCADD_FRZ
  5
6339
 10
4.721756
 20
4.759625
 30
0.0
 40
0.125
  1
KSEAT_DEFAULT_VALUES
1001
TB_S_MPD
1070
   100
1000
KSEAT
1070
   101
1000
TOOLBOX 12.0 KSEAT 1.0
1070
   102
1000
Near end1
1070
   103
1000
ANSI-Fraction
1070
   104
1000
kws_
1070
   117
1000
1
1070
   105
1000
<Current>
1070
   106
1000
HIDDEN
1070
   107
1000
CENTER
1070
   300
1040
0.125
1070
   113
1000
1
1070
   108
1000
1
1070
   120
1000
2
1070
   121
1000
0
  0
TEXT
  8
ADCADD_FRZ
  5
633A
 10
0.5
 20
7.75
 30
0.0
 40
0.125
  1
HDIM_DEFAULT_VALUES
1001
TB_S_MPD
1070
   100
1000
HDIM
1070
   101
1000
TOOLBOX 12.0 HDIM 12.0
1070
   102
1000
0
1070
   105
1000
TOOLBOX
1070
   106
1000
3
1070
   107
1000
0
1070
   108
1000
1
1070
   109
1000
1
1070
   110
1000
0
1070
   111
1000
0
  0
TEXT
  8
ADCADD_FRZ
  5
633B
 10
0.5
 20
7.5
 30
0.0
 40
0.125
  1
HCHART_DEFAULT_VALUES
1001
TB_S_MPD
1070
   100
1000
HCHART
1070
   101
1000
TOOLBOX 12.0 HCHART 12.0
1070
   102
1000
0
1070
   105
1000
0
1070
   300
1040
0.125
1070
   301
1040
0.0625
1070
   302
1040
45.0
1070
   303
1040
1.0
1070
   106
1000
3
1070
   107
1000
0
1070
   108
1000
1
1070
   109
1000
1
  0
TEXT
  8
ADCADD_FRZ
  5
633C
 10
4.721756
 20
4.509625
 30
0.0
 40
0.125
  1
ORINGGRV_DEFAULT_VALUES
1001
TB_S_MPD
1070
   100
1000
ORINGGRV
1070
   101
1000
TOOLBOX 12.0 ORINGGRV 12.0
1070
   301
1040
0.0
1070
   302
1040
0.0
1070
   303
1040
0.0
1070
   304
1040
0.0
1070
   305
1040
0.0
1070
   306
1040
0.0
1070
   307
1040
0.0
1070
   102
1000
0
1070
   120
1000
1
  0
TEXT
  8
ADCADD_FRZ
  5
633D
 10
4.721756
 20
4.259625
 30
0.0
 40
0.125
  1
RRINGGRV_DEFAULT_VALUES
1001
TB_S_MPD
1070
   100
1000
RRINGGRV
1070
   101
1000
TOOLBOX 12.0 RRINGGRV 12.0
1070
   301
1040
0.0
1070
   302
1040
0.0
1070
   303
1040
0.0
1070
   304
1040
0.0
1070
   102
1000
0
1070
   120
1000
1
  0
TEXT
  8
ADCADD_FRZ
  5
633E
 10
0.5
 20
8.0
 30
0.0
 40
0.125
  1
LAYMGR_DEFAULT_VALUES
1001
TB_S_MPD
1070
   100
1000
LAYMGR
1070
   101
1000
TOOLBOX 12.0 LAYMGR 12.0
1070
   150
1000
("BOM" "CONTINUOUS" "2" "1")
1070
   151
1000
("CENTER" "CENTER" "4" "1")
1070
   152
1000
("CHARTS" "CONTINUOUS" "2" "1")
1070
   153
1000
("CONSTRUCT" "CONTINUOUS" "1" "1")
1070
   154
1000
("DIMS" "CONTINUOUS" "2" "1")
1070
   155
1000
("HIDDEN" "HIDDEN" "4" "1")
1070
   156
1000
("HCHARTS" "CONTINUOUS" "2" "1")
1070
   157
1000
("DIMS" "CONTINUOUS" "2" "1")
1070
   158
1000
("OBJECT" "CONTINUOUS" "7" "1")
1070
   159
1000
("SECTION" "PHANTOM" "6" "1")
  0
TEXT
  8
ADCADD_FRZ
  5
633F
 10
0.44056
 20
4.259625
 30
0.0
 40
0.125
  1
STEEL_DEFAULT_VALUES
1001
TB_S_MPD
1070
   100
1000
STEEL
1070
   101
1000
TOOLBOX 12.0 STEEL 1.0
1070
   102
1000
Section
1070
   103
1000
AISC
1070
   104
1000
C
1070
   105
1000
<Current>
1070
   106
1000
HIDDEN
1070
   116
1000
1
1070
   117
1000
1
1070
   301
1040
29000000.0
  0
TEXT
  8
ADCADD_FRZ
  5
6340
 10
0.441
 20
4.01
 30
0.0
 40
0.125
  1
DETVIEW_DEFAULT_VALUES
1001
TB_S_MPD
1070
   100
1000
DETVIEW
1070
   101
1000
TOOLBOX 12.0 DETVIEW 12.0
1070
   301
1040
5.0
1070
   102
1000
A
1070
   302
1040
0.125
1070
   105
1000
TOOLBOX
1070
   106
1000
DETAIL {1} SCALE: {2}X
1070
   107
1000
SEE DETAIL {1}
  0
TEXT
  8
ADCADD_FRZ
  5
6342
 10
4.721756
 20
4.01
 30
0.0
 40
0.125
  1
CYLPART_DEFAULT_VALUES
1001
TB_S_MPD
1070
   100
1000
CYLPART
1070
   101
1000
TOOLBOX 12.0 CYLPART 12.0
1070
   102
1000
0
1070
   103
1000
0
1070
   104
1000
0
1070
   105
1000
none
1070
   106
1000
d1d2
1070
   107
1000
chamfer
1070
   108
1000
fillet
1070
   109
1000
sharp
1070
   110
1000
1
1070
   301
1040
0.125
1070
   302
1040
0.125
1070
   303
1040
0.25
  0
TEXT
  8
ADCADD_FRZ
  5
6343
 10
0.441
 20
3.76
 30
0.0
 40
0.125
  1
MODELER_DEFAULT_VALUES
1001
TB_S_MPD
1070
   100
1000
MODELER
1070
   101
1000
TOOLBOX 12.0 MODELER 1.0
1070
   102
1000
0
  0
ENDBLK
  8
0
  5
9A00
  0
BLOCK
  8
0
  5
782B
  2
LOGO
 70
    64
 10
0.0
 20
0.0
 30
0.0
  3
LOGO
  0
TEXT
  8
0
  6
CONTINUOUS
 62
   255
  5
782C
 10
0.774535
 20
0.27455
 30
0.0
 40
0.580078
  1
l
 41
0.75
 51
5.0
  7
SCRIPTS
  0
TEXT
  8
0
  6
CONTINUOUS
 62
   255
  5
782D
 10
0.950328
 20
0.27455
 30
0.0
 40
0.580078
  1
e
 41
0.75
 51
5.0
  7
SCRIPTS
  0
TEXT
  8
0
  6
CONTINUOUS
 62
   255
  5
782E
 10
1.153546
 20
0.27455
 30
0.0
 40
0.580078
  1
a
 41
0.75
 51
5.0
  7
SCRIPTS
  0
TEXT
  8
0
  6
CONTINUOUS
 62
   255
  5
782F
 10
1.481059
 20
0.27455
 30
0.0
 40
0.580078
  1
s
 41
0.75
 51
5.0
  7
SCRIPTS
  0
TEXT
  8
0
  6
CONTINUOUS
 62
   255
  5
7830
 10
1.704986
 20
0.27455
 30
0.0
 40
0.580078
  1
o
 41
0.75
 51
5.0
  7
SCRIPTS
  0
TEXT
  8
0
  6
CONTINUOUS
 62
   255
  5
7831
 10
1.99808
 20
0.27455
 30
0.0
 40
0.580078
  1
n
 41
0.75
 51
5.0
  7
SCRIPTS
  0
ARC
  8
0
  6
CONTINUOUS
 62
   255
  5
7832
 10
0.439873
 20
0.580341
 30
0.0
 40
0.322704
 50
52.133545
 51
309.134786
  0
ARC
  8
0
  6
CONTINUOUS
 62
   255
  5
7833
 10
0.439874
 20
0.580348
 30
0.0
 40
0.421768
 50
52.682117
 51
314.841836
  0
LINE
  8
0
  6
CONTINUOUS
 62
   255
  5
7834
 10
0.643546
 20
0.330031
 30
0.0
 11
0.643546
 21
0.435512
 31
0.0
  0
LINE
  8
0
  6
CONTINUOUS
 62
   255
  5
7835
 10
0.643546
 20
0.435512
 30
0.0
 11
0.491065
 21
0.435512
 31
0.0
  0
LINE
  8
0
  6
CONTINUOUS
 62
   255
  5
7836
 10
0.737285
 20
0.281291
 30
0.0
 11
0.737285
 21
0.534263
 31
0.0
  0
LINE
  8
0
  6
CONTINUOUS
 62
   255
  5
7837
 10
0.737285
 20
0.534263
 30
0.0
 11
0.491065
 21
0.534263
 31
0.0
  0
TEXT
  8
0
  6
CONTINUOUS
 62
   255
  5
7838
 10
2.723762
 20
0.240928
 30
0.0
 40
0.580078
  1
 
 41
0.75
 51
5.0
  7
SCRIPTS
  0
TEXT
  8
0
  6
CONTINUOUS
 62
   255
  5
7839
 10
2.403813
 20
0.268432
 30
0.0
 40
0.580078
  1
R
 41
0.75
 51
5.0
  7
SCRIPTS
  0
TEXT
  8
0
  6
CONTINUOUS
 62
   255
  5
783A
 10
2.880317
 20
0.268432
 30
0.0
 40
0.580078
  1
e
 41
0.75
 51
5.0
  7
SCRIPTS
  0
TEXT
  8
0
  6
CONTINUOUS
 62
   255
  5
783B
 10
3.093726
 20
0.268432
 30
0.0
 40
0.580078
  1
e
 41
0.75
 51
5.0
  7
SCRIPTS
  0
TEXT
  8
0
  6
CONTINUOUS
 62
   255
  5
783C
 10
3.308114
 20
0.26678
 30
0.0
 40
0.580078
  1
l
 41
0.75
 51
5.0
  7
SCRIPTS
  0
POLYLINE
  8
0
  6
CONTINUOUS
 62
   255
  5
783D
 66
     1
 10
0.0
 20
0.0
 30
0.0
 40
0.009
 41
0.009
  0
VERTEX
  8
0
  6
CONTINUOUS
 62
   255
  5
783E
 10
4.602956
 20
0.376025
 30
0.0
  0
VERTEX
  8
0
  6
CONTINUOUS
 62
   255
  5
783F
 10
4.259351
 20
0.950522
 30
0.0
  0
VERTEX
  8
0
  6
CONTINUOUS
 62
   255
  5
7840
 10
3.71531
 20
0.029853
 30
0.0
  0
SEQEND
  8
0
  6
CONTINUOUS
 62
   255
  5
7841
  0
POLYLINE
  8
0
  6
CONTINUOUS
 62
   255
  5
7842
 66
     1
 10
0.0
 20
0.0
 30
0.0
 40
0.009
 41
0.009
  0
VERTEX
  8
0
  6
CONTINUOUS
 62
   255
  5
7843
 10
4.571178
 20
1.211581
 30
0.0
  0
VERTEX
  8
0
  6
CONTINUOUS
 62
   255
  5
7844
 10
3.887112
 20
0.762706
 30
0.0
  0
VERTEX
  8
0
  6
CONTINUOUS
 62
   255
  5
7845
 10
4.213776
 20
1.255908
 30
0.0
  0
SEQEND
  8
0
  6
CONTINUOUS
 62
   255
  5
7846
  0
POLYLINE
  8
0
  6
CONTINUOUS
 62
   255
  5
7847
 66
     1
 10
0.0
 20
0.0
 30
0.0
  0
VERTEX
  8
0
  6
CONTINUOUS
 62
   255
  5
7848
 10
4.220525
 20
1.262225
 30
0.0
 42
0.116788
  0
VERTEX
  8
0
  6
CONTINUOUS
 62
   255
  5
7849
 10
4.213776
 20
1.255908
 30
0.0
 42
0.116788
  0
SEQEND
  8
0
  6
CONTINUOUS
 62
   255
  5
784A
  0
POLYLINE
  8
0
  6
CONTINUOUS
 62
   255
  5
784B
 66
     1
 10
0.0
 20
0.0
 30
0.0
 40
0.009
 41
0.009
  0
VERTEX
  8
0
  6
CONTINUOUS
 62
   255
  5
784C
 10
4.325378
 20
1.445361
 30
0.0
  0
VERTEX
  8
0
  6
CONTINUOUS
 62
   255
  5
784D
 10
4.345252
 20
1.333522
 30
0.0
  0
VERTEX
  8
0
  6
CONTINUOUS
 62
   255
  5
784E
 10
4.220525
 20
1.262225
 30
0.0
  0
SEQEND
  8
0
  6
CONTINUOUS
 62
   255
  5
784F
  0
POLYLINE
  8
0
  6
CONTINUOUS
 62
   255
  5
7850
 66
     1
 10
0.0
 20
0.0
 30
0.0
 40
0.009
 41
0.009
  0
VERTEX
  8
0
  6
CONTINUOUS
 62
   255
  5
7851
 10
4.559166
 20
1.432193
 30
0.0
 42
1.597506
  0
VERTEX
  8
0
  6
CONTINUOUS
 62
   255
  5
7852
 10
4.325377
 20
1.445361
 30
0.0
 42
1.597506
  0
SEQEND
  8
0
  6
CONTINUOUS
 62
   255
  5
7853
  0
POLYLINE
  8
0
  6
CONTINUOUS
 62
   255
  5
7854
 66
     1
 10
0.0
 20
0.0
 30
0.0
 40
0.009
 41
0.009
  0
VERTEX
  8
0
  6
CONTINUOUS
 62
   255
  5
7855
 10
4.559166
 20
1.432193
 30
0.0
  0
VERTEX
  8
0
  6
CONTINUOUS
 62
   255
  5
7856
 10
4.517055
 20
1.322474
 30
0.0
  0
SEQEND
  8
0
  6
CONTINUOUS
 62
   255
  5
7857
  0
POLYLINE
  8
0
  6
CONTINUOUS
 62
   255
  5
7858
 66
     1
 10
0.0
 20
0.0
 30
0.0
 40
0.009
 41
0.009
  0
VERTEX
  8
0
  6
CONTINUOUS
 62
   255
  5
7859
 10
4.517055
 20
1.322474
 30
0.0
  0
VERTEX
  8
0
  6
CONTINUOUS
 62
   255
  5
785A
 10
4.576437
 20
1.239989
 30
0.0
 42
-0.426936
  0
VERTEX
  8
0
  6
CONTINUOUS
 62
   255
  5
785B
 10
4.571178
 20
1.211581
 30
0.0
  0
SEQEND
  8
0
  6
CONTINUOUS
 62
   255
  5
785C
  0
POLYLINE
  8
0
  6
CONTINUOUS
 62
   255
  5
785D
 66
     1
 10
0.0
 20
0.0
 30
0.0
  0
VERTEX
  8
0
  6
CONTINUOUS
 62
   255
  5
785E
 10
3.48624
 20
0.401805
 30
0.0
  0
VERTEX
  8
0
  6
CONTINUOUS
 62
   255
  5
785F
 10
3.887112
 20
0.762706
 30
0.0
  0
SEQEND
  8
0
  6
CONTINUOUS
 62
   255
  5
7860
  0
ENDBLK
  8
0
  5
7861
  0
BLOCK
  8
0
  5
B5940
  2
$$$
 70
     0
 10
0.0
 20
0.0
 30
0.0
  3
$$$
  0
ARC
  8
LINK
  5
B5941
 10
3.35993
 20
0.0
 30
0.0
 40
1.145
 50
283.265056
 51
76.734944
  0
LINE
  8
FEET_MALE
  5
B5942
 10
9.35993
 20
-1.365
 30
0.0
 11
9.35993
 21
-2.07
 31
0.0
  0
LINE
  8
FEET_MALE
  5
B5943
 10
9.23993
 20
-1.365
 30
0.0
 11
9.23993
 21
-2.07
 31
0.0
  0
LINE
  8
FEET_MALE
  5
B5944
 10
9.35993
 20
-2.07
 30
0.0
 11
9.23993
 21
-2.07
 31
0.0
  0
LINE
  8
FEET_MALE
  5
B5945
 10
5.85993
 20
-1.245
 30
0.0
 11
9.14593
 21
-1.245
 31
0.0
  0
LINE
  8
FEET_MALE
  6
HIDDEN
 62
     1
  5
B5946
 10
5.85993
 20
-1.125
 30
0.0
 11
9.14593
 21
-1.125
 31
0.0
  0
LINE
  8
FEET_MALE
  5
B5947
 10
5.85993
 20
0.0
 30
0.0
 11
9.35993
 21
0.0
 31
0.0
  0
LINE
  8
FEET_MALE
  5
B5948
 10
5.85993
 20
1.245
 30
0.0
 11
9.14593
 21
1.245
 31
0.0
  0
LINE
  8
FEET_MALE
  6
HIDDEN
 62
     1
  5
B5949
 10
5.85993
 20
1.125
 30
0.0
 11
9.14593
 21
1.125
 31
0.0
  0
ARC
  8
LINK
  6
HIDDEN
 62
     1
  5
B594A
 10
5.35993
 20
0.0
 30
0.0
 40
1.145
 50
295.892321
 51
64.107679
  0
ARC
  8
LINK
  6
HIDDEN
 62
     1
  5
B594B
 10
5.35993
 20
0.0
 30
0.0
 40
1.125
 50
296.3878
 51
63.6122
  0
LINE
  8
FEET_MALE
  5
B594C
 10
5.85993
 20
0.0
 30
0.0
 11
5.85993
 21
1.245
 31
0.0
  0
LINE
  8
LINK
  5
B594D
 10
5.85993
 20
-1.125
 30
0.0
 11
3.64093
 21
-1.125
 31
0.0
  0
CIRCLE
  8
LINK
  5
B594E
 10
5.35993
 20
0.0
 30
0.0
 40
0.25
  0
LINE
  8
FEET_MALE
  5
B594F
 10
5.85993
 20
0.0
 30
0.0
 11
5.85993
 21
-1.245
 31
0.0
  0
ARC
  8
LINK
  5
B5950
 10
5.35993
 20
0.0
 30
0.0
 40
1.145
 50
283.265056
 51
295.892321
  0
ARC
  8
LINK
  5
B5951
 10
5.35993
 20
0.0
 30
0.0
 40
1.125
 50
270.0
 51
296.3878
  0
LINE
  8
LINK
  5
B5952
 10
5.85993
 20
1.125
 30
0.0
 11
3.64093
 21
1.125
 31
0.0
  0
ARC
  8
LINK
  5
B5953
 10
5.35993
 20
0.0
 30
0.0
 40
1.125
 50
63.6122
 51
90.0
  0
ARC
  8
LINK
  5
B5954
 10
5.35993
 20
0.0
 30
0.0
 40
1.145
 50
64.107679
 51
76.734944
  0
ARC
  8
LINK
  6
HIDDEN
 62
     1
  5
B5955
 10
7.35993
 20
0.0
 30
0.0
 40
1.125
 50
270.0
 51
90.0
  0
LINE
  8
FEET_MALE
  5
B5956
 10
9.35993
 20
0.0
 30
0.0
 11
9.35993
 21
1.065
 31
0.0
  0
CIRCLE
  8
LINK
  6
HIDDEN
 62
     1
  5
B5957
 10
7.35993
 20
0.0
 30
0.0
 40
0.25
  0
LINE
  8
FEET_MALE
  5
B5958
 10
9.35993
 20
0.0
 30
0.0
 11
9.35993
 21
-1.065
 31
0.0
  0
ARC
  8
FEET_MALE
  5
B5959
 10
9.120718
 20
-1.361566
 30
0.0
 40
0.119262
 50
358.350076
 51
77.795487
  0
ARC
  8
FEET_MALE
  5
B595A
 10
9.122417
 20
-1.361374
 30
0.0
 40
0.237541
 50
359.125349
 51
84.319299
  0
LINE
  8
CENTER
  5
B595B
 10
9.613588
 20
-1.69
 30
0.0
 11
9.117108
 21
-1.69
 31
0.0
  0
LINE
  8
FEET_MALE
  5
B595C
 10
9.35993
 20
-1.065
 30
0.0
 11
9.14593
 21
-1.065
 31
0.0
  0
LINE
  8
FEET_MALE
  5
B595D
 10
9.14593
 20
-1.245
 30
0.0
 11
9.14593
 21
-1.065
 31
0.0
  0
LINE
  8
FEET_MALE
  5
B595E
 10
9.23993
 20
1.339
 30
0.0
 11
9.23993
 21
2.07
 31
0.0
  0
LINE
  8
FEET_MALE
  5
B595F
 10
9.35993
 20
1.339
 30
0.0
 11
9.35993
 21
2.07
 31
0.0
  0
ARC
  8
FEET_MALE
  5
B5960
 10
9.14593
 20
1.339
 30
0.0
 40
0.094
 50
270.0
 51
0.0
  0
ARC
  8
FEET_MALE
  5
B5961
 10
9.14593
 20
1.339
 30
0.0
 40
0.214
 50
270.0
 51
0.0
  0
LINE
  8
FEET_MALE
  5
B5962
 10
9.35993
 20
1.065
 30
0.0
 11
9.14593
 21
1.065
 31
0.0
  0
LINE
  8
FEET_MALE
  5
B5963
 10
9.14593
 20
1.245
 30
0.0
 11
9.14593
 21
1.065
 31
0.0
  0
LINE
  8
CENTER
  5
B5964
 10
9.613588
 20
1.69
 30
0.0
 11
9.117108
 21
1.69
 31
0.0
  0
LINE
  8
FEET_MALE
  5
B5965
 10
9.35993
 20
2.07
 30
0.0
 11
9.23993
 21
2.07
 31
0.0
  0
ENDBLK
  8
0
  5
B5966
  0
ENDSEC
  0
SECTION
  2
ENTITIES
  0
TEXT
  8
ADCADD_FRZ
  5
654
 10
0.5
 20
8.5
 30
0.0
 40
0.125
  1
TOOLBOX_DEFAULT_VALUES
1001
TB_S_MPD
1070
   100
1000
TOOLBOX
1070
   101
1000
TOOLBOX 12.0 TOOLBOX 12.0
1070
   102
1000
0
1070
   103
1000
ANSI-Fraction
  0
TEXT
  8
ADCADD_FRZ
  5
655
 10
0.5
 20
8.25
 30
0.0
 40
0.125
  1
CBORE_DEFAULT_VALUES
1001
TB_S_MPD
1070
   100
1000
CBORE
1070
   101
1000
TOOLBOX 12.0 CBORE 1.0
1070
   102
1000
Near side
1070
   103
1000
ANSI-Fraction
1070
   104
1000
shcs
1070
   105
1000
<Current>
1070
   106
1000
HIDDEN
1070
   107
1000
CENTER
1070
   300
1040
0.125
1070
   108
1000
1
1070
   109
1000
1
1070
   301
1040
0.03
1070
   110
1000
1
1070
   302
1040
0.0
1070
   303
1040
0.0
1070
   113
1000
1
1070
   117
1000
1
  0
TEXT
  8
ADCADD_FRZ
  5
658
 10
0.5
 20
7.25
 30
0.0
 40
0.125
  1
RECT_DEFAULT_VALUES
1001
TB_S_MPD
1070
   100
1000
RECT
1070
   101
1000
TOOLBOX 12.0 RECT 12.0
1070
   102
1000
0
1070
   103
1000
0
1070
   301
1040
0.0
1070
   105
1000
0
1070
   302
1040
0.0
1070
   104
1000
0
1070
   303
1040
0.0
1070
   304
1040
0.0
1070
   305
1040
0.0
1070
   306
1040
0.0
1070
   307
1040
0.0
  0
TEXT
  8
ADCADD_FRZ
  5
65B
 10
0.5
 20
6.5
 30
0.0
 40
0.125
  1
CALC_DEFAULT_VALUES
1001
TB_S_MPD
1070
   100
1000
CALC
1070
   101
1000
TOOLBOX 12.0 CALC 12.0
1070
   102
1000
0
  0
TEXT
  8
ADCADD_FRZ
  5
65C
 10
0.5
 20
6.25
 30
0.0
 40
0.125
  1
CSINK_DEFAULT_VALUES
1001
TB_S_MPD
1070
   100
1000
CSINK
1070
   101
1000
TOOLBOX 12.0 CSINK 1.0
1070
   102
1000
Near side
1070
   103
1000
ANSI-Fraction
1070
   104
1000
fhcs
1070
   105
1000
<Current>
1070
   106
1000
HIDDEN
1070
   107
1000
CENTER
1070
   300
1040
0.125
1070
   108
1000
1
1070
   109
1000
1
1070
   301
1040
0.03
1070
   110
1000
1
1070
   302
1040
0.0
1070
   303
1040
0.0
1070
   113
1000
1
1070
   117
1000
1
  0
TEXT
  8
ADCADD_FRZ
  5
65D
 10
0.5
 20
6.0
 30
0.0
 40
0.125
  1
HOLE_DEFAULT_VALUES
1001
TB_S_MPD
1070
   100
1000
HOLE
1070
   101
1000
TOOLBOX 12.0 HOLE 1.0
1070
   102
1000
Near side
1070
   103
1000
ANSI-Fraction
1070
   104
1000
hole
1070
   110
1000
1
1070
   116
1000
1
1070
   117
1000
1
1070
   310
1040
118.0
1070
   105
1000
<Current>
1070
   106
1000
HIDDEN
1070
   107
1000
CENTER
1070
   300
1040
0.125
1070
   113
1000
1
1070
   108
1000
1
1070
   109
1000
1
1070
   302
1040
0.0
1070
   303
1040
0.0
1070
   304
1040
0.0
1070
   305
1040
0.0
  0
TEXT
  8
ADCADD_FRZ
  5
65E
 10
0.5
 20
5.75
 30
0.0
 40
0.125
  1
PTAP_DEFAULT_VALUES
1001
TB_S_MPD
1070
   100
1000
PTAP
1070
   101
1000
TOOLBOX 12.0 PTAP 1.0
1070
   102
1000
Near side
1070
   103
1000
ANSI-Fraction
1070
   104
1000
ptap
1070
   116
1000
1
1070
   117
1000
1
1070
   310
1040
118.0
1070
   105
1000
<Current>
1070
   106
1000
HIDDEN
1070
   107
1000
CENTER
1070
   300
1040
0.125
1070
   113
1000
1
1070
   108
1000
1
1070
   109
1000
1
1070
   302
1040
0.0
1070
   303
1040
0.0
1070
   304
1040
0.0
1070
   305
1040
0.0
  0
TEXT
  8
ADCADD_FRZ
  5
65F
 10
0.5
 20
5.5
 30
0.0
 40
0.125
  1
TAP_DEFAULT_VALUES
1001
TB_S_MPD
1070
   100
1000
TAP
1070
   101
1000
TOOLBOX 12.0 TAP 1.0
1070
   102
1000
Near side
1070
   103
1000
ANSI-Fraction
1070
   104
1000
tap_
1070
   110
1000
Plug
1070
   116
1000
1
1070
   117
1000
1
1070
   310
1040
118.0
1070
   105
1000
<Current>
1070
   106
1000
HIDDEN
1070
   107
1000
CENTER
1070
   300
1040
0.125
1070
   113
1000
1
1070
   108
1000
1
1070
   109
1000
1
1070
   302
1040
0.0
1070
   303
1040
0.0
1070
   304
1040
0.0
1070
   305
1040
0.0
  0
TEXT
  8
ADCADD_FRZ
  5
660
 10
0.5
 20
5.25
 30
0.0
 40
0.125
  1
HCOIL_DEFAULT_VALUES
1001
TB_S_MPD
1070
   100
1000
HCOIL
1070
   101
1000
TOOLBOX 12.0 HCOIL 1.0
1070
   102
1000
Near side
1070
   103
1000
ANSI-Fraction
1070
   104
1000
hc10
1070
   116
1000
1
1070
   119
1000
1
1070
   117
1000
1
1070
   118
1000
1
1070
   310
1040
118.0
1070
   105
1000
<Current>
1070
   106
1000
HIDDEN
1070
   107
1000
CENTER
1070
   300
1040
0.125
1070
   113
1000
1
1070
   108
1000
1
1070
   109
1000
1
1070
   302
1040
0.0
1070
   303
1040
0.0
1070
   304
1040
0.0
1070
   305
1040
120.0
  0
TEXT
  8
ADCADD_FRZ
  5
661
 10
0.469558
 20
5.000843
 30
0.0
 40
0.125
  1
BMAT_DEFAULT_VALUES
1001
TB_S_MPD
1070
   100
1000
BMAT
1070
   101
1000
TOOLBOX 12.0 BMAT 12.0
1070
   104
1000
Plain
1070
   300
1040
0.4375
1070
   105
1000
1
1070
   301
1040
0.0
1070
   106
1000
DEFAULT
1070
   107
1000
TOOLBOX
1070
   302
1040
0.125
1070
   303
1040
0.0625
1070
   108
1000
1
1070
   109
1000
1
1070
   110
1000
1
1070
   111
1000
1
1070
   112
1000
0
  0
TEXT
  8
ADCADD_FRZ
  5
662
 10
0.471002
 20
4.758783
 30
0.0
 40
0.125
  1
TOLERANCE_DEFAULT_VALUES
1001
TB_S_MPD
1070
   100
1000
TOLERANCE
1070
   101
1000
TOOLBOX 12.0 TOLERANCE 12.0
1070
   102
1000
(0.005 0.0 0.01 0.0 0.01 0.0 0.01 0.005)
1070
   103
1000
(0.005 0.0 0.01 0.0 0.01 0.005)
  0
TEXT
  8
ADCADD_FRZ
  5
663
 10
4.721756
 20
7.75
 30
0.0
 40
0.125
  1
HARDWARE1_DEFAULT_VALUES
1001
TB_S_MPD
1070
   100
1000
HARDWARE1
1070
   101
1000
TOOLBOX 12.0 HARDWARE1 1.0
1070
   102
1000
Near side
1070
   103
1000
ANSI-Fraction
1070
   104
1000
hhms
1070
   105
1000
<Current>
1070
   106
1000
HIDDEN
1070
   107
1000
CENTER
1070
   300
1040
0.125
1070
   108
1000
1
1070
   109
1000
1
1070
   113
1000
1
1070
   114
1000
1
1070
   117
1000
1
1070
   118
1000
1
1070
   119
1000
No slot-indent
  0
TEXT
  8
ADCADD_FRZ
  5
664
 10
4.75
 20
8.5
 30
0.0
 40
0.125
  1
USERLIB_DEFAULT_VALUES
1001
TB_S_MPD
1070
   100
1000
USERLIB
1070
   101
1000
TOOLBOX 12.0 USERLIB 12.0
1070
   110
1000
1
1070
   111
1000
1
1070
   112
1000
1
1070
   113
1000
0
1070
   118
1000
1
1070
   114
1000
1
  0
TEXT
  8
ADCADD_FRZ
  5
665
 10
4.721756
 20
8.23913
 30
0.0
 40
0.125
  1
PTDIM_DEFAULT_VALUES
1001
TB_S_MPD
1070
   100
1000
PTDIM
1070
   101
1000
TOOLBOX 12.0 PTDIM 12.0
1070
   102
1000
(
1070
   103
1000
0
1070
   105
1000
TOOLBOX
1070
   301
1040
0.125
1070
   108
1000
4
1070
   109
1000
0
1070
   110
1000
1
  0
TEXT
  8
ADCADD_FRZ
  5
666
 10
4.721756
 20
8.0
 30
0.0
 40
0.125
  1
SLINE_DEFAULT_VALUES
1001
TB_S_MPD
1070
   100
1000
SLINE
1070
   101
1000
TOOLBOX 12.0 SLINE 12.0
1070
   102
1000
TOOLBOX
1070
   301
1040
0.25
1070
   302
1040
0.25
1070
   303
1040
0.5
1070
   103
1000
PHANTOM
1070
   104
1000
2
1070
   304
1040
0.0
  0
TEXT
  8
ADCADD_FRZ
  5
667
 10
4.721756
 20
7.5
 30
0.0
 40
0.125
  1
HARDWARE2_DEFAULT_VALUES
1001
TB_S_MPD
1070
   100
1000
HARDWARE2
1070
   101
1000
TOOLBOX 12.0 HARDWARE2 1.0
1070
   102
1000
Near side
1070
   103
1000
ANSI-Fraction
1070
   104
1000
hnr_
1070
   105
1000
<Current>
1070
   106
1000
HIDDEN
1070
   107
1000
CENTER
1070
   300
1040
0.125
1070
   108
1000
1
1070
   109
1000
1
1070
   113
1000
1
1070
   117
1000
1
1070
   118
1000
1
1070
   119
1000
Chamfer
  0
TEXT
  8
ADCADD_FRZ
  5
66A
 10
4.721756
 20
7.25
 30
0.0
 40
0.125
  1
HARDWARE3_DEFAULT_VALUES
1001
TB_S_MPD
1070
   100
1000
HARDWARE3
1070
   101
1000
TOOLBOX 12.0 HARDWARE3 1.0
1070
   102
1000
Near side
1070
   103
1000
ANSI-Fraction
1070
   104
1000
dpm_
1070
   105
1000
<Current>
1070
   106
1000
HIDDEN
1070
   107
1000
CENTER
1070
   300
1040
0.125
1070
   108
1000
1
1070
   109
1000
1
1070
   113
1000
1
1070
   117
1000
1
1070
   118
1000
1
1070
   119
1000
No options
  0
TEXT
  8
ADCADD_FRZ
  5
66B
 10
4.721756
 20
7.0
 30
0.0
 40
0.125
  1
HARDWARE4_DEFAULT_VALUES
1001
TB_S_MPD
1070
   100
1000
HARDWARE4
1070
   101
1000
TOOLBOX 12.0 HARDWARE4 1.0
1070
   102
1000
Near side
1070
   103
1000
ANSI-Fraction
1070
   104
1000
ss4_
1070
   105
1000
<Current>
1070
   106
1000
HIDDEN
1070
   107
1000
CENTER
1070
   300
1040
0.125
1070
   108
1000
1
1070
   109
1000
1
1070
   113
1000
1
1070
   114
1000
1
1070
   117
1000
1
1070
   118
1000
1
1070
   119
1000
Hex
  0
TEXT
  8
ADCADD_FRZ
  5
66C
 10
4.721756
 20
6.75
 30
0.0
 40
0.125
  1
HARDWARE5_DEFAULT_VALUES
1001
TB_S_MPD
1070
   100
1000
HARDWARE5
1070
   101
1000
TOOLBOX 12.0 HARDWARE5 1.0
1070
   102
1000
Near side
1070
   103
1000
ANSI-Fraction
1070
   104
1000
fw1_
1070
   105
1000
<Current>
1070
   106
1000
HIDDEN
1070
   107
1000
CENTER
1070
   300
1040
0.125
1070
   108
1000
1
1070
   109
1000
1
1070
   113
1000
1
1070
   117
1000
1
1070
   118
1000
1
1070
   119
1000
No options
  0
TEXT
  8
ADCADD_FRZ
  5
66D
 10
4.721756
 20
6.5
 30
0.0
 40
0.125
  1
GEAR_DEFAULT_VALUES
1001
TB_S_MPD
1070
   100
1000
GEAR
1070
   101
1000
TOOLBOX 12.0 GEAR 12.0
1070
   103
1000
0
1070
   104
1000
0
1070
   105
1000
100
1070
   106
1000
6
1070
   300
1040
8.0
1070
   301
1040
14.5
1070
   107
1000
20000
  0
TEXT
  8
ADCADD_FRZ
  5
66E
 10
4.721756
 20
6.0
 30
0.0
 40
0.125
  1
CIRCAM_DEFAULT_VALUES
1001
TB_S_MPD
1070
   300
1040
1.0
1070
   100
1000
CIRCAM
1070
   101
1000
TOOLBOX 12.0 CIRCAM 12.0
1070
   103
1000
1
1070
   104
1000
1
1070
   105
1000
CT
1070
   106
1000
0
1070
   301
1040
1.0
1070
   302
1040
0.0005
  0
TEXT
  8
ADCADD_FRZ
  5
66F
 10
4.721756
 20
5.75
 30
0.0
 40
0.125
  1
LINCAM_DEFAULT_VALUES
1001
TB_S_MPD
1070
   300
1040
1.0
1070
   100
1000
LINCAM
1070
   101
1000
TOOLBOX 12.0 LINCAM 12.0
1070
   103
1000
1
1070
   104
1000
1
1070
   105
1000
LT
  0
TEXT
  8
ADCADD_FRZ
  5
671
 10
4.721756
 20
6.25
 30
0.0
 40
0.125
  1
CAM_DEFAULT_VALUES
1001
TB_S_MPD
1070
   100
1000
CAM
1070
   101
1000
TOOLBOX 12.0 CAM 12.0
1070
   102
1000
0
  0
TEXT
  8
ADCADD_FRZ
  5
672
 10
4.721756
 20
5.5
 30
0.0
 40
0.125
  1
THREAD_DEFAULT_VALUES
1001
TB_S_MPD
1070
   100
1000
THREAD
1070
   101
1000
TOOLBOX 12.0 THREAD 12.0
1070
   102
1000
0
1070
   103
1000
ANSI-Fraction
1070
   114
1000
1
  0
TEXT
  8
ADCADD_FRZ
  5
674
 10
0.5
 20
6.75
 30
0.0
 40
0.125
  1
VERTEX_DEFAULT_VALUES
1001
TB_S_MPD
1070
   100
1000
VERTEX
1070
   101
1000
TOOLBOX 12.0 VERTEX 12.0
1070
   109
1000
1
1070
   110
1000
3
1070
   111
1000
0
1070
   112
1000
1
1070
   113
1000
0
1070
   114
1000
1
1070
   115
1000
0
1070
   116
1000
1
  0
TEXT
  8
ADCADD_FRZ
  5
675
 10
4.721756
 20
5.250843
 30
0.0
 40
0.125
  1
SFINISH_DEFAULT_VALUES
1001
TB_S_MPD
1070
   100
1000
SFINISH
1070
   101
1000
TOOLBOX 12.0 SFINISH 12.0
1070
   102
1000
0
1070
   301
1040
0.0
1070
   302
1040
0.0
1070
   303
1040
0.0
  0
TEXT
  8
ADCADD_FRZ
  5
676
 10
4.721756
 20
5.008783
 30
0.0
 40
0.125
  1
DDIM_DEFAULT_VALUES
1001
TB_S_MPD
1070
   100
1000
DDIM
1070
   101
1000
TOOLBOX 12.0 DDIM 12.0
1070
   104
1000
0
1070
   105
1000
0
1070
   106
1000
0
1070
   107
1000
0
1070
   108
1000
0
1070
   300
1040
2.0
1070
   109
1000
0
1070
   110
1000
1
1070
   301
1040
1.0
1070
   302
1040
0.0625
1070
   303
1040
0.0625
1070
   304
1040
0.25
1070
   305
1040
0.25
1070
   111
1000
1
1070
   112
1000
0
1070
   113
1000
0
1070
   114
1000
0
1070
   115
1000
TOOLBOX
1070
   306
1040
0.125
1070
   307
1040
0.125
1070
   116
1000
0
1070
   120
1000

1070
   121
1000

1070
   122
1000

1070
   123
1000
0
  0
TEXT
  8
ADCADD_FRZ
  5
677
 10
0.5
 20
7.0
 30
0.0
 40
0.125
  1
SLOT_DEFAULT_VALUES
1001
TB_S_MPD
1070
   100
1000
SLOT
1070
   101
1000
TOOLBOX 12.0 SLOT 12.0
1070
   102
1000
Near side
1070
   120
1000
2
1070
   104
1000
1
1070
   116
1000
1
1070
   310
1040
0.0
1070
   306
1040
0.0
1070
   311
1040
0.0
1070
   308
1040
0.0
1070
   117
1000
1
1070
   105
1000
<Current>
1070
   106
1000
HIDDEN
1070
   107
1000
CENTER
1070
   300
1040
0.125
1070
   113
1000
1
1070
   108
1000
1
1070
   109
1000
1
  0
TEXT
  8
ADCADD_FRZ
  5
679
 10
0.44056
 20
4.509625
 30
0.0
 40
0.125
  1
KWAY_DEFAULT_VALUES
1001
TB_S_MPD
1070
   100
1000
KWAY
1070
   101
1000
TOOLBOX 12.0 KWAY 1.0
1070
   102
1000
Near side
1070
   103
1000
ANSI-Fraction
1070
   104
1000
kws_
1070
   117
1000
1
1070
   110
1000
0
1070
   105
1000
<Current>
1070
   106
1000
HIDDEN
1070
   107
1000
CENTER
1070
   300
1040
0.125
1070
   113
1000
1
1070
   108
1000
1
1070
   109
1000
1
1070
   302
1040
0.0
1070
   303
1040
0.0
1070
   304
1040
0.0
1070
   305
1040
0.0
  0
TEXT
  8
ADCADD_FRZ
  5
67A
 10
4.721756
 20
4.759625
 30
0.0
 40
0.125
  1
KSEAT_DEFAULT_VALUES
1001
TB_S_MPD
1070
   100
1000
KSEAT
1070
   101
1000
TOOLBOX 12.0 KSEAT 1.0
1070
   102
1000
Near end1
1070
   103
1000
ANSI-Fraction
1070
   104
1000
kws_
1070
   117
1000
1
1070
   105
1000
<Current>
1070
   106
1000
HIDDEN
1070
   107
1000
CENTER
1070
   300
1040
0.125
1070
   113
1000
1
1070
   108
1000
1
1070
   120
1000
2
1070
   121
1000
0
  0
TEXT
  8
ADCADD_FRZ
  5
67B
 10
0.5
 20
7.75
 30
0.0
 40
0.125
  1
HDIM_DEFAULT_VALUES
1001
TB_S_MPD
1070
   100
1000
HDIM
1070
   101
1000
TOOLBOX 12.0 HDIM 12.0
1070
   102
1000
0
1070
   105
1000
TOOLBOX
1070
   106
1000
3
1070
   107
1000
0
1070
   108
1000
1
1070
   109
1000
1
1070
   110
1000
0
1070
   111
1000
0
  0
TEXT
  8
ADCADD_FRZ
  5
67C
 10
0.5
 20
7.5
 30
0.0
 40
0.125
  1
HCHART_DEFAULT_VALUES
1001
TB_S_MPD
1070
   100
1000
HCHART
1070
   101
1000
TOOLBOX 12.0 HCHART 12.0
1070
   102
1000
0
1070
   105
1000
0
1070
   300
1040
0.125
1070
   301
1040
0.0625
1070
   302
1040
45.0
1070
   303
1040
1.0
1070
   106
1000
3
1070
   107
1000
0
1070
   108
1000
1
1070
   109
1000
1
  0
TEXT
  8
ADCADD_FRZ
  5
67D
 10
4.721756
 20
4.509625
 30
0.0
 40
0.125
  1
ORINGGRV_DEFAULT_VALUES
1001
TB_S_MPD
1070
   100
1000
ORINGGRV
1070
   101
1000
TOOLBOX 12.0 ORINGGRV 12.0
1070
   301
1040
0.0
1070
   302
1040
0.0
1070
   303
1040
0.0
1070
   304
1040
0.0
1070
   305
1040
0.0
1070
   306
1040
0.0
1070
   307
1040
0.0
1070
   102
1000
0
1070
   120
1000
1
  0
TEXT
  8
ADCADD_FRZ
  5
67E
 10
4.721756
 20
4.259625
 30
0.0
 40
0.125
  1
RRINGGRV_DEFAULT_VALUES
1001
TB_S_MPD
1070
   100
1000
RRINGGRV
1070
   101
1000
TOOLBOX 12.0 RRINGGRV 12.0
1070
   301
1040
0.0
1070
   302
1040
0.0
1070
   303
1040
0.0
1070
   304
1040
0.0
1070
   102
1000
0
1070
   120
1000
1
  0
TEXT
  8
ADCADD_FRZ
  5
67F
 10
0.5
 20
8.0
 30
0.0
 40
0.125
  1
LAYMGR_DEFAULT_VALUES
1001
TB_S_MPD
1070
   100
1000
LAYMGR
1070
   101
1000
TOOLBOX 12.0 LAYMGR 12.0
1070
   150
1000
("BOM" "CONTINUOUS" "2" "1")
1070
   151
1000
("CENTER" "CENTER" "4" "1")
1070
   152
1000
("CHARTS" "CONTINUOUS" "2" "1")
1070
   153
1000
("CONSTRUCT" "CONTINUOUS" "1" "1")
1070
   154
1000
("DIMS" "CONTINUOUS" "2" "1")
1070
   155
1000
("HIDDEN" "HIDDEN" "4" "1")
1070
   156
1000
("HCHARTS" "CONTINUOUS" "2" "1")
1070
   157
1000
("DIMS" "CONTINUOUS" "2" "1")
1070
   158
1000
("OBJECT" "CONTINUOUS" "7" "1")
1070
   159
1000
("SECTION" "PHANTOM" "6" "1")
  0
TEXT
  8
ADCADD_FRZ
  5
680
 10
0.44056
 20
4.259625
 30
0.0
 40
0.125
  1
STEEL_DEFAULT_VALUES
1001
TB_S_MPD
1070
   100
1000
STEEL
1070
   101
1000
TOOLBOX 12.0 STEEL 1.0
1070
   102
1000
Section
1070
   103
1000
AISC
1070
   104
1000
C
1070
   105
1000
<Current>
1070
   106
1000
HIDDEN
1070
   116
1000
1
1070
   117
1000
1
1070
   301
1040
29000000.0
  0
TEXT
  8
ADCADD_FRZ
  5
681
 10
0.441
 20
4.01
 30
0.0
 40
0.125
  1
DETVIEW_DEFAULT_VALUES
1001
TB_S_MPD
1070
   100
1000
DETVIEW
1070
   101
1000
TOOLBOX 12.0 DETVIEW 12.0
1070
   301
1040
5.0
1070
   102
1000
A
1070
   302
1040
0.125
1070
   105
1000
TOOLBOX
1070
   106
1000
DETAIL {1} SCALE: {2}X
1070
   107
1000
SEE DETAIL {1}
  0
TEXT
  8
ADCADD_FRZ
  5
683
 10
4.721756
 20
4.01
 30
0.0
 40
0.125
  1
CYLPART_DEFAULT_VALUES
1001
TB_S_MPD
1070
   100
1000
CYLPART
1070
   101
1000
TOOLBOX 12.0 CYLPART 12.0
1070
   102
1000
0
1070
   103
1000
0
1070
   104
1000
0
1070
   105
1000
none
1070
   106
1000
d1d2
1070
   107
1000
chamfer
1070
   108
1000
fillet
1070
   109
1000
sharp
1070
   110
1000
1
1070
   301
1040
0.125
1070
   302
1040
0.125
1070
   303
1040
0.25
  0
TEXT
  8
ADCADD_FRZ
  5
684
 10
0.441
 20
3.76
 30
0.0
 40
0.125
  1
MODELER_DEFAULT_VALUES
1001
TB_S_MPD
1070
   100
1000
MODELER
1070
   101
1000
TOOLBOX 12.0 MODELER 1.0
1070
   102
1000
0
  0
INSERT
  8
LINK
  5
9A01
  2
ACAD
 10
6.451401
 20
5.151212
 30
0.0
 41
-1.0
  0
TEXT
  8
FEET_MALE
 62
     3
  5
BE03
 10
11.991407
 20
13.098992
 30
0.0
 40
0.4
  1
SB BRACKET
  0
TEXT
  8
FEET_MALE
 62
     3
  5
BE04
 10
23.774314
 20
12.984508
 30
0.0
 40
0.4
  1
TB BRACKET
  0
TEXT
  8
FEET_MALE
 62
     3
  5
BE06
 10
-0.602241
 20
12.271824
 30
0.0
 40
0.4
  1
LINK DETAIL
  0
TEXT
  8
FEET_MALE
  5
BE07
 10
25.180497
 20
2.255709
 30
0.0
 40
0.5
  1
1530-4.1 POWERTUBE
  0
INSERT
  8
0
 62
     4
  5
CD70
  2
LOGO
 10
27.150653
 20
4.40302
 30
0.0
 41
0.87052
 42
0.87052
 43
0.87052
  0
TEXT
  8
0
 62
     3
  5
CDA0
 10
28.107896
 20
3.597338
 30
0.0
 40
0.1575
  1
MAYVILLE, WISCONSIN
  7
ROMANS
 72
     1
 11
29.371646
 21
3.754838
 31
0.0
 73
     3
  0
TEXT
  8
0
 62
     3
  5
CDA7
 10
27.28236
 20
3.951342
 30
0.0
 40
0.25
  1
GLEASON REEL CORP.
  7
ROMANS
 72
     1
 11
29.371646
 21
4.201342
 31
0.0
 73
     3
  0
TEXT
  8
OBJECT
 62
     3
  5
CDA8
 10
25.180497
 20
1.512351
 30
0.0
 40
0.3125
  1
BEND RADII (A DIMENSION) = 4.12 INCHES
 41
0.8
  7
MASTER
  0
TEXT
  8
OBJECT
 62
     3
  5
CDA9
 10
25.180497
 20
1.006399
 30
0.0
 40
0.3125
  1
TOTAL TRAVEL SELF-SUPPORTED (NO SAG) 9.5 FT
 41
0.8
  7
MASTER
  0
TEXT
  8
OBJECT
 62
     3
  5
CDAA
 10
25.180497
 20
0.500446
 30
0.0
 40
0.3125
  1
TOTAL TRAVEL SELF-SUPPORTED (W/ SAG) 11.5 FT
 41
0.8
  7
MASTER
  0
TEXT
  8
OBJECT
 62
     3
  5
CDAB
 10
25.180497
 20
-0.005506
 30
0.0
 40
0.3125
  1
MAX. CABLE O.D. = 1.25 INCHES
 41
0.8
  7
MASTER
  0
TEXT
  8
OBJECT
 62
     3
  5
D064
 10
25.180497
 20
-0.577093
 30
0.0
 40
0.3125
  1
FILE NAME: 1530-41 / DRWN 11-3-95
 41
0.8
  7
MASTER
  0
TEXT
  8
CONSTRUCT
  5
D33C
 10
-6.491548
 20
-9.457826
 30
0.0
 40
0.18
  1
plot scale = 1/4
 41
0.8
  7
MASTER
  0
LINE
  8
CENTER
  6
CENTER
  5
B37A6
 10
0.025839
 20
15.29025
 30
0.0
 11
0.025839
 21
14.24769
 31
0.0
  0
LINE
  8
CENTER
  6
CENTER
  5
B37A8
 10
-2.406906
 20
14.76897
 30
0.0
 11
0.547119
 21
14.76897
 31
0.0
  0
TEXT
  8
FEET_MALE
 62
     3
  5
B3915
 10
10.304443
 20
12.223319
 30
0.0
 40
0.4
  1
SCOOP-TYPE BRACKET
  0
LINE
  8
FEET_MALE
  5
B3950
 10
26.774155
 20
17.141983
 30
0.0
 11
30.266155
 21
17.141983
 31
0.0
  0
LINE
  8
FEET_MALE
  5
B3954
 10
26.560155
 20
17.047983
 30
0.0
 11
26.560155
 21
16.016983
 31
0.0
  0
LINE
  8
FEET_MALE
  5
B395B
 10
26.560155
 20
16.016983
 30
0.0
 11
26.680155
 21
16.016983
 31
0.0
  0
LINE
  8
FEET_MALE
  5
B395D
 10
30.480155
 20
16.016983
 30
0.0
 11
30.480155
 21
17.047983
 31
0.0
  0
LINE
  8
FEET_MALE
  5
B3963
 10
30.405455
 20
16.016983
 30
0.0
 11
30.480155
 21
16.016983
 31
0.0
  0
LINE
  8
FEET_MALE
  5
B3965
 10
26.905155
 20
18.086983
 30
0.0
 11
30.135155
 21
18.086983
 31
0.0
  0
LINE
  8
FEET_MALE
  5
B3967
 10
26.785155
 20
17.966983
 30
0.0
 11
26.785155
 21
17.261983
 31
0.0
  0
LINE
  8
FEET_MALE
  5
B3968
 10
30.255155
 20
17.261983
 30
0.0
 11
30.255155
 21
17.966983
 31
0.0
  0
ARC
  8
FEET_MALE
  5
B3969
 10
26.905155
 20
17.966983
 30
0.0
 40
0.12
 50
90.0
 51
180.0
  0
ARC
  8
FEET_MALE
  5
B396A
 10
30.135155
 20
17.966983
 30
0.0
 40
0.12
 50
0.0
 51
90.0
  0
LINE
  8
CENTER
  5
B396D
 10
29.582655
 20
17.359877
 30
0.0
 11
29.582655
 21
17.969871
 31
0.0
  0
LINE
  8
CENTER
  5
B396E
 10
27.457655
 20
17.359877
 30
0.0
 11
27.457655
 21
17.969871
 31
0.0
  0
LINE
  8
CENTER
  5
B3977
 10
26.958472
 20
17.706983
 30
0.0
 11
30.084741
 21
17.706983
 31
0.0
  0
LINE
  8
FEET_MALE
  5
B397A
 10
30.255155
 20
14.771983
 30
0.0
 11
30.255155
 21
14.066983
 31
0.0
  0
LINE
  8
FEET_MALE
  5
B397B
 10
26.785155
 20
14.066983
 30
0.0
 11
26.785155
 21
14.771983
 31
0.0
  0
LINE
  8
FEET_MALE
  5
B397D
 10
26.774155
 20
14.891983
 30
0.0
 11
30.266155
 21
14.891983
 31
0.0
  0
LINE
  8
FEET_MALE
  5
B397E
 10
26.560155
 20
14.985983
 30
0.0
 11
26.560155
 21
16.016983
 31
0.0
  0
LINE
  8
FEET_MALE
  5
B3980
 10
26.560155
 20
16.016983
 30
0.0
 11
26.634855
 21
16.016983
 31
0.0
  0
LINE
  8
FEET_MALE
  5
B3984
 10
30.480155
 20
16.016983
 30
0.0
 11
30.480155
 21
14.985983
 31
0.0
  0
LINE
  8
FEET_MALE
  5
B3985
 10
30.360155
 20
16.016983
 30
0.0
 11
30.480155
 21
16.016983
 31
0.0
  0
LINE
  8
FEET_MALE
  5
B3989
 10
26.905155
 20
13.946983
 30
0.0
 11
30.135155
 21
13.946983
 31
0.0
  0
ARC
  8
FEET_MALE
  5
B398A
 10
26.905155
 20
14.066983
 30
0.0
 40
0.12
 50
180.0
 51
270.0
  0
ARC
  8
FEET_MALE
  5
B3993
 10
30.135155
 20
14.066983
 30
0.0
 40
0.12
 50
270.0
 51
0.0
  0
LINE
  8
FEET_MALE
  5
B3995
 10
21.625092
 20
16.016983
 30
0.0
 11
21.625092
 21
14.951983
 31
0.0
  0
LINE
  8
FEET_MALE
  5
B3996
 10
21.625092
 20
13.946983
 30
0.0
 11
21.745092
 21
13.946983
 31
0.0
  0
LINE
  8
FEET_MALE
  5
B3998
 10
25.125092
 20
16.016983
 30
0.0
 11
25.125092
 21
14.771983
 31
0.0
  0
LINE
  8
FEET_MALE
  5
B399A
 10
25.125092
 20
16.016983
 30
0.0
 11
21.625092
 21
16.016983
 31
0.0
  0
LINE
  8
FEET_MALE
  5
B399B
 10
25.125092
 20
14.771983
 30
0.0
 11
21.839092
 21
14.771983
 31
0.0
  0
LINE
  8
FEET_MALE
  6
HIDDEN
 62
     1
  5
B399C
 10
25.125092
 20
14.891983
 30
0.0
 11
21.839092
 21
14.891983
 31
0.0
  0
LINE
  8
FEET_MALE
  5
B39A0
 10
21.625092
 20
14.951983
 30
0.0
 11
21.839092
 21
14.951983
 31
0.0
  0
LINE
  8
FEET_MALE
  5
B39A2
 10
21.625092
 20
14.651983
 30
0.0
 11
21.625092
 21
13.946983
 31
0.0
  0
LINE
  8
FEET_MALE
  6
HIDDEN
 62
     1
  5
B39A3
 10
25.125092
 20
17.141983
 30
0.0
 11
21.839092
 21
17.141983
 31
0.0
  0
LINE
  8
FEET_MALE
  5
B39A4
 10
25.125092
 20
17.261983
 30
0.0
 11
21.839092
 21
17.261983
 31
0.0
  0
LINE
  8
FEET_MALE
  5
B39A5
 10
21.625092
 20
17.355983
 30
0.0
 11
21.625092
 21
18.086983
 31
0.0
  0
LINE
  8
FEET_MALE
  5
B39A7
 10
21.625092
 20
18.086983
 30
0.0
 11
21.745092
 21
18.086983
 31
0.0
  0
LINE
  8
FEET_MALE
  5
B39A8
 10
21.625092
 20
16.016983
 30
0.0
 11
21.625092
 21
17.081983
 31
0.0
  0
LINE
  8
FEET_MALE
  5
B39AC
 10
21.625092
 20
17.081983
 30
0.0
 11
21.839092
 21
17.081983
 31
0.0
  0
LINE
  8
FEET_MALE
  5
B39AD
 10
25.125092
 20
16.016983
 30
0.0
 11
25.125092
 21
17.261983
 31
0.0
  0
LINE
  8
CENTER
  5
B39AE
 10
21.371435
 20
17.706983
 30
0.0
 11
21.867914
 21
17.706983
 31
0.0
  0
LINE
  8
CENTER
  5
B39AF
 10
21.371435
 20
14.326983
 30
0.0
 11
21.867914
 21
14.326983
 31
0.0
  0
LINE
  8
FEET_MALE
  5
B39B2
 10
25.125092
 20
21.808459
 30
0.0
 11
25.125092
 21
18.458059
 31
0.0
  0
LINE
  8
FEET_MALE
  5
B39B3
 10
25.125092
 20
18.458059
 30
0.0
 11
21.625092
 21
18.458059
 31
0.0
  0
LINE
  8
FEET_MALE
  5
B39B4
 10
21.625092
 20
18.623359
 30
0.0
 11
21.625092
 21
21.643159
 31
0.0
  0
LINE
  8
FEET_MALE
  5
B39B5
 10
21.625092
 20
21.808459
 30
0.0
 11
25.125092
 21
21.808459
 31
0.0
  0
LINE
  8
FEET_MALE
  5
B39B6
 10
21.625092
 20
21.643159
 30
0.0
 11
21.748586
 21
21.643159
 31
0.0
  0
LINE
  8
FEET_MALE
  5
B39B8
 10
21.748586
 20
18.623359
 30
0.0
 11
21.625092
 21
18.623359
 31
0.0
  0
LINE
  8
FEET_MALE
  6
HIDDEN
 62
     1
  5
B39B9
 10
21.748586
 20
21.688459
 30
0.0
 11
25.125092
 21
21.688459
 31
0.0
  0
LINE
  8
FEET_MALE
  6
HIDDEN
 62
     1
  5
B39BA
 10
25.125092
 20
18.578059
 30
0.0
 11
21.748586
 21
18.578059
 31
0.0
  0
LINE
  8
FEET_MALE
  5
B3AAC
 10
21.748586
 20
18.458059
 30
0.0
 11
21.748586
 21
18.623359
 31
0.0
  0
LINE
  8
FEET_MALE
  5
B3AAD
 10
21.748586
 20
21.688459
 30
0.0
 11
21.625092
 21
21.688459
 31
0.0
  0
LINE
  8
FEET_MALE
  5
B3AAE
 10
21.625092
 20
21.688459
 30
0.0
 11
21.625092
 21
21.808459
 31
0.0
  0
LINE
  8
FEET_MALE
  5
B3AAF
 10
21.748586
 20
18.578059
 30
0.0
 11
21.625092
 21
18.578059
 31
0.0
  0
LINE
  8
FEET_MALE
  5
B3AB0
 10
21.625092
 20
18.578059
 30
0.0
 11
21.625092
 21
18.458059
 31
0.0
  0
LINE
  8
FEET_MALE
  5
B3AB2
 10
21.699822
 20
21.643159
 30
0.0
 11
21.699822
 21
18.623359
 31
0.0
  0
LINE
  8
FEET_MALE
  5
B3AB3
 10
21.748586
 20
21.643159
 30
0.0
 11
21.748586
 21
21.808459
 31
0.0
  0
LINE
  8
CENTER
  5
B3AB4
 10
22.034717
 20
21.195759
 30
0.0
 11
21.371111
 21
21.195759
 31
0.0
  0
LINE
  8
CENTER
  5
B3AB5
 10
22.034717
 20
19.070759
 30
0.0
 11
21.371111
 21
19.070759
 31
0.0
  0
TEXT
  8
FEET_MALE
 62
     3
  5
B3AB6
 10
22.079177
 20
12.191085
 30
0.0
 40
0.4
  1
FLANGE-TYPE BRACKET
  0
LINE
  8
FEET_MALE
  5
B4EFA
 10
26.774155
 20
17.261983
 30
0.0
 11
30.266155
 21
17.261983
 31
0.0
  0
LINE
  8
FEET_MALE
  5
B4EFC
 10
26.774155
 20
14.771983
 30
0.0
 11
30.266155
 21
14.771983
 31
0.0
  0
LINE
  8
FEET_MALE
  5
B4EFE
 10
26.680155
 20
14.985983
 30
0.0
 11
26.680155
 21
16.016983
 31
0.0
  0
LINE
  8
FEET_MALE
  5
B4EFF
 10
26.680155
 20
17.047983
 30
0.0
 11
26.680155
 21
16.016983
 31
0.0
  0
LINE
  8
FEET_MALE
  5
B4F00
 10
30.360155
 20
16.016983
 30
0.0
 11
30.360155
 21
17.047983
 31
0.0
  0
LINE
  8
FEET_MALE
  5
B4F01
 10
30.360155
 20
16.016983
 30
0.0
 11
30.360155
 21
14.985983
 31
0.0
  0
ARC
  8
FEET_MALE
  5
B4F02
 10
26.774155
 20
17.047983
 30
0.0
 40
0.094
 50
90.0
 51
180.0
  0
ARC
  8
FEET_MALE
  5
B4F03
 10
30.266155
 20
17.047983
 30
0.0
 40
0.094
 50
0.0
 51
90.0
  0
ARC
  8
FEET_MALE
  5
B4F04
 10
30.266155
 20
14.985983
 30
0.0
 40
0.094
 50
270.0
 51
0.0
  0
ARC
  8
FEET_MALE
  5
B4F05
 10
26.774155
 20
14.985983
 30
0.0
 40
0.094
 50
180.0
 51
270.0
  0
ARC
  8
FEET_MALE
  5
B4F06
 10
26.774155
 20
17.047983
 30
0.0
 40
0.214
 50
90.0
 51
180.0
  0
ARC
  8
FEET_MALE
  5
B4F07
 10
30.266155
 20
17.047983
 30
0.0
 40
0.214
 50
0.0
 51
90.0
  0
ARC
  8
FEET_MALE
  5
B4F08
 10
30.266155
 20
14.985983
 30
0.0
 40
0.214
 50
270.0
 51
0.0
  0
ARC
  8
FEET_MALE
  5
B4F09
 10
26.774155
 20
14.985983
 30
0.0
 40
0.214
 50
180.0
 51
270.0
  0
LINE
  8
FEET_MALE
  5
B4F0B
 10
21.745092
 20
17.355983
 30
0.0
 11
21.745092
 21
18.086983
 31
0.0
  0
LINE
  8
FEET_MALE
  5
B4F0C
 10
21.745092
 20
14.651983
 30
0.0
 11
21.745092
 21
13.946983
 31
0.0
  0
ARC
  8
FEET_MALE
  5
B4F0D
 10
21.839092
 20
17.355983
 30
0.0
 40
0.094
 50
180.0
 51
270.0
  0
ARC
  8
FEET_MALE
  5
B4F0E
 10
21.864304
 20
14.655416
 30
0.0
 40
0.119262
 50
102.204513
 51
181.649924
  0
LINE
  8
FEET_MALE
  5
B4F0F
 10
21.839092
 20
17.261983
 30
0.0
 11
21.839092
 21
17.081983
 31
0.0
  0
LINE
  8
FEET_MALE
  5
B4F10
 10
21.839092
 20
14.771983
 30
0.0
 11
21.839092
 21
14.951983
 31
0.0
  0
ARC
  8
FEET_MALE
  5
B4F11
 10
21.839092
 20
17.355983
 30
0.0
 40
0.214
 50
180.0
 51
270.0
  0
ARC
  8
FEET_MALE
  5
B4F12
 10
21.862605
 20
14.655609
 30
0.0
 40
0.237541
 50
95.680701
 51
180.874651
  0
LINE
  8
FEET_FEMALE
  5
B4FEA
 10
9.968679
 20
14.826021
 30
0.0
 11
9.968679
 21
16.686021
 31
0.0
  0
LINE
  8
FEET_FEMALE
  5
B4FED
 10
13.468679
 20
14.826021
 30
0.0
 11
9.968679
 21
14.826021
 31
0.0
  0
LINE
  8
FEET_FEMALE
  5
B4FEE
 10
10.348679
 20
17.066021
 30
0.0
 11
11.326515
 21
17.066021
 31
0.0
  0
LINE
  8
FEET_FEMALE
  5
B4FF0
 10
13.468679
 20
14.706021
 30
0.0
 11
13.468679
 21
15.152938
 31
0.0
  0
LINE
  8
FEET_FEMALE
  5
B4FF1
 10
13.338098
 20
15.439627
 30
0.0
 11
11.575934
 21
16.972709
 31
0.0
  0
LINE
  8
FEET_FEMALE
  6
HIDDEN
 62
     1
  5
B4FF2
 10
12.438712
 20
14.946021
 30
0.0
 11
9.968679
 21
14.946021
 31
0.0
  0
LINE
  8
FEET_MALE
  5
B5000
 10
27.566655
 20
17.534983
 30
0.0
 11
27.348655
 21
17.534983
 31
0.0
  0
LINE
  8
FEET_MALE
  5
B5001
 10
27.348655
 20
17.878983
 30
0.0
 11
27.566655
 21
17.878983
 31
0.0
  0
ARC
  8
FEET_MALE
  5
B5002
 10
27.348655
 20
17.706983
 30
0.0
 40
0.172
 50
90.0
 51
270.0
  0
ARC
  8
FEET_MALE
  5
B5003
 10
27.566655
 20
17.706983
 30
0.0
 40
0.172
 50
270.0
 51
90.0
  0
LINE
  8
FEET_MALE
  5
B5004
 10
29.691655
 20
17.534983
 30
0.0
 11
29.473655
 21
17.534983
 31
0.0
  0
LINE
  8
FEET_MALE
  5
B5005
 10
29.473655
 20
17.878983
 30
0.0
 11
29.691655
 21
17.878983
 31
0.0
  0
ARC
  8
FEET_MALE
  5
B5006
 10
29.473655
 20
17.706983
 30
0.0
 40
0.172
 50
90.0
 51
270.0
  0
ARC
  8
FEET_MALE
  5
B5007
 10
29.691655
 20
17.706983
 30
0.0
 40
0.172
 50
270.0
 51
90.0
  0
LINE
  8
FEET_MALE
  5
B500E
 10
29.473655
 20
14.154983
 30
0.0
 11
29.691655
 21
14.154983
 31
0.0
  0
LINE
  8
FEET_MALE
  5
B500F
 10
29.691655
 20
14.498983
 30
0.0
 11
29.473655
 21
14.498983
 31
0.0
  0
ARC
  8
FEET_MALE
  5
B5010
 10
27.566655
 20
14.326983
 30
0.0
 40
0.172
 50
270.0
 51
90.0
  0
ARC
  8
FEET_MALE
  5
B5011
 10
27.348655
 20
14.326983
 30
0.0
 40
0.172
 50
90.0
 51
270.0
  0
LINE
  8
CENTER
  5
B5012
 10
27.457655
 20
14.648088
 30
0.0
 11
27.457655
 21
14.064094
 31
0.0
  0
LINE
  8
FEET_MALE
  5
B5013
 10
27.566655
 20
14.498983
 30
0.0
 11
27.348655
 21
14.498983
 31
0.0
  0
LINE
  8
FEET_MALE
  5
B5014
 10
27.348655
 20
14.154983
 30
0.0
 11
27.566655
 21
14.154983
 31
0.0
  0
ARC
  8
FEET_MALE
  5
B5015
 10
29.473655
 20
14.326983
 30
0.0
 40
0.172
 50
90.0
 51
270.0
  0
LINE
  8
CENTER
  5
B5016
 10
29.582655
 20
14.648088
 30
0.0
 11
29.582655
 21
14.064094
 31
0.0
  0
ARC
  8
FEET_MALE
  5
B5017
 10
29.691655
 20
14.326983
 30
0.0
 40
0.172
 50
270.0
 51
90.0
  0
LINE
  8
CENTER
  5
B5018
 10
26.958472
 20
14.326983
 30
0.0
 11
30.084741
 21
14.326983
 31
0.0
  0
ARC
  8
FEET_FEMALE
  5
B5019
 10
11.326515
 20
16.686021
 30
0.0
 40
0.38
 50
48.976731
 51
90.0
  0
ARC
  8
FEET_FEMALE
  5
B501A
 10
13.088679
 20
15.152938
 30
0.0
 40
0.38
 50
0.0
 51
48.976731
  0
ARC
  8
FEET_FEMALE
  5
B501B
 10
10.348679
 20
16.686021
 30
0.0
 40
0.38
 50
90.0
 51
180.0
  0
LINE
  8
FEET_FEMALE
  5
B501D
 10
13.468679
 20
14.706021
 30
0.0
 11
12.682679
 21
14.706021
 31
0.0
  0
ARC
  8
FEET_FEMALE
  5
B501F
 10
12.682679
 20
14.920021
 30
0.0
 40
0.214
 50
217.61768
 51
270.0
  0
ARC
  8
FEET_FEMALE
  5
B5020
 10
12.438712
 20
14.732021
 30
0.0
 40
0.094
 50
37.61768
 51
90.0
  0
ARC
  8
FEET_FEMALE
  6
HIDDEN
 62
     1
  5
B5021
 10
12.438712
 20
14.732021
 30
0.0
 40
0.214
 50
37.61768
 51
90.0
  0
ARC
  8
FEET_FEMALE
  6
HIDDEN
 62
     1
  5
B5022
 10
12.682679
 20
14.920021
 30
0.0
 40
0.094
 50
217.61768
 51
270.0
  0
LINE
  8
CENTER
  5
B5023
 10
13.088679
 20
14.495395
 30
0.0
 11
13.088679
 21
15.152938
 31
0.0
  0
LINE
  8
CENTER
  5
B5024
 10
10.468679
 20
16.617339
 30
0.0
 11
10.468679
 21
17.157564
 31
0.0
  0
LINE
  8
CENTER
  5
B5025
 10
10.191439
 20
16.869021
 30
0.0
 11
10.727182
 21
16.869021
 31
0.0
  0
CIRCLE
  8
FEET_FEMALE
  5
B5026
 10
10.468679
 20
16.869021
 30
0.0
 40
0.077
  0
LINE
  8
FEET_FEMALE
  5
B502E
 10
9.968679
 20
17.818652
 30
0.0
 11
13.468679
 21
17.818652
 31
0.0
  0
LINE
  8
FEET_FEMALE
  5
B502F
 10
13.468679
 20
17.698652
 30
0.0
 11
13.468679
 21
21.613652
 31
0.0
  0
LINE
  8
FEET_FEMALE
  5
B5030
 10
13.468679
 20
21.493652
 30
0.0
 11
9.968679
 21
21.493652
 31
0.0
  0
LINE
  8
FEET_FEMALE
  5
B5031
 10
9.968679
 20
21.613652
 30
0.0
 11
9.968679
 21
17.698652
 31
0.0
  0
LINE
  8
FEET_FEMALE
  5
B5032
 10
9.968679
 20
17.698652
 30
0.0
 11
13.468679
 21
17.698652
 31
0.0
  0
LINE
  8
FEET_FEMALE
  5
B5033
 10
13.468679
 20
21.613652
 30
0.0
 11
9.968679
 21
21.613652
 31
0.0
  0
LINE
  8
CENTER
  5
B5034
 10
13.088679
 20
21.217834
 30
0.0
 11
13.088679
 21
18.091566
 31
0.0
  0
LINE
  8
FEET_FEMALE
  5
B5035
 10
13.260679
 20
18.702652
 30
0.0
 11
13.260679
 21
18.484652
 31
0.0
  0
LINE
  8
FEET_FEMALE
  5
B5036
 10
12.916679
 20
18.484652
 30
0.0
 11
12.916679
 21
18.702652
 31
0.0
  0
ARC
  8
FEET_FEMALE
  5
B503A
 10
13.088679
 20
20.609652
 30
0.0
 40
0.172
 50
180.0
 51
0.0
  0
LINE
  8
CENTER
  5
B503B
 10
12.767574
 20
20.718652
 30
0.0
 11
13.351568
 21
20.718652
 31
0.0
  0
ARC
  8
FEET_FEMALE
  5
B503D
 10
13.088679
 20
20.827652
 30
0.0
 40
0.172
 50
0.0
 51
180.0
  0
LINE
  8
FEET_FEMALE
  5
B503E
 10
12.916679
 20
20.609652
 30
0.0
 11
12.916679
 21
20.827652
 31
0.0
  0
LINE
  8
FEET_FEMALE
  5
B503F
 10
13.260679
 20
20.827652
 30
0.0
 11
13.260679
 21
20.609652
 31
0.0
  0
LINE
  8
CENTER
  5
B5041
 10
12.767574
 20
18.593652
 30
0.0
 11
13.351568
 21
18.593652
 31
0.0
  0
ARC
  8
FEET_FEMALE
  5
B5042
 10
13.088679
 20
18.702652
 30
0.0
 40
0.172
 50
0.0
 51
180.0
  0
ARC
  8
FEET_FEMALE
  5
B5044
 10
13.088679
 20
18.484652
 30
0.0
 40
0.172
 50
180.0
 51
0.0
  0
LINE
  8
FEET_FEMALE
  5
B5046
 10
12.588679
 20
18.247652
 30
0.0
 11
12.588679
 21
18.939652
 31
0.0
  0
LINE
  8
FEET_FEMALE
  5
B5047
 10
12.682679
 20
21.158652
 30
0.0
 11
13.468679
 21
21.158652
 31
0.0
  0
LINE
  8
FEET_FEMALE
  5
B5048
 10
12.682679
 20
20.278652
 30
0.0
 11
13.468679
 21
20.278652
 31
0.0
  0
LINE
  8
FEET_FEMALE
  5
B5049
 10
12.682679
 20
19.033652
 30
0.0
 11
13.468679
 21
19.033652
 31
0.0
  0
LINE
  8
FEET_FEMALE
  5
B504A
 10
12.682679
 20
18.153652
 30
0.0
 11
13.468679
 21
18.153652
 31
0.0
  0
LINE
  8
FEET_FEMALE
  5
B504B
 10
12.588679
 20
20.372652
 30
0.0
 11
12.588679
 21
21.064652
 31
0.0
  0
ARC
  8
FEET_FEMALE
  5
B504C
 10
12.682679
 20
21.064652
 30
0.0
 40
0.094
 50
90.0
 51
180.0
  0
ARC
  8
FEET_FEMALE
  5
B504D
 10
12.682679
 20
20.372652
 30
0.0
 40
0.094
 50
180.0
 51
270.0
  0
ARC
  8
FEET_FEMALE
  5
B504E
 10
12.682679
 20
18.939652
 30
0.0
 40
0.094
 50
90.0
 51
180.0
  0
ARC
  8
FEET_FEMALE
  5
B504F
 10
12.682679
 20
18.247652
 30
0.0
 40
0.094
 50
180.0
 51
270.0
  0
LINE
  8
CENTER
  5
B5060
 10
15.508933
 20
15.067376
 30
0.0
 11
15.508933
 21
14.483382
 31
0.0
  0
LINE
  8
CENTER
  5
B5065
 10
17.633933
 20
15.067376
 30
0.0
 11
17.633933
 21
14.483382
 31
0.0
  0
LINE
  8
FEET_FEMALE
  5
B506B
 10
14.613933
 20
17.066021
 30
0.0
 11
14.733933
 21
17.066021
 31
0.0
  0
LINE
  8
FEET_FEMALE
  5
B506C
 10
14.733933
 20
17.066021
 30
0.0
 11
14.733933
 21
15.040021
 31
0.0
  0
LINE
  8
FEET_FEMALE
  5
B506D
 10
14.827933
 20
14.946021
 30
0.0
 11
14.918966
 21
14.946021
 31
0.0
  0
LINE
  8
FEET_FEMALE
  5
B506E
 10
18.408933
 20
15.040021
 30
0.0
 11
18.408933
 21
17.066021
 31
0.0
  0
LINE
  8
FEET_FEMALE
  5
B506F
 10
18.408933
 20
17.066021
 30
0.0
 11
18.528933
 21
17.066021
 31
0.0
  0
LINE
  8
FEET_FEMALE
  5
B5070
 10
18.528933
 20
17.066021
 30
0.0
 11
18.528933
 21
15.040021
 31
0.0
  0
LINE
  8
FEET_FEMALE
  5
B5071
 10
16.979933
 20
14.826021
 30
0.0
 11
16.162933
 21
14.826021
 31
0.0
  0
LINE
  8
FEET_FEMALE
  5
B5072
 10
14.613933
 20
15.040021
 30
0.0
 11
14.613933
 21
17.066021
 31
0.0
  0
ARC
  8
FEET_FEMALE
  5
B5073
 10
14.827933
 20
15.040021
 30
0.0
 40
0.094
 50
180.0
 51
270.0
  0
ARC
  8
FEET_FEMALE
  5
B5074
 10
18.314933
 20
15.040021
 30
0.0
 40
0.094
 50
270.0
 51
0.0
  0
ARC
  8
FEET_FEMALE
  5
B5075
 10
14.827933
 20
15.040021
 30
0.0
 40
0.214
 50
180.0
 51
270.0
  0
ARC
  8
FEET_FEMALE
  5
B5076
 10
18.314933
 20
15.040021
 30
0.0
 40
0.214
 50
270.0
 51
0.0
  0
LINE
  8
FEET_FEMALE
  5
B5078
 10
15.0989
 20
14.706021
 30
0.0
 11
15.918966
 21
14.706021
 31
0.0
  0
LINE
  8
FEET_FEMALE
  5
B507C
 10
14.854933
 20
14.826021
 30
0.0
 11
14.827933
 21
14.826021
 31
0.0
  0
LINE
  8
FEET_FEMALE
  5
B507D
 10
15.854933
 20
14.826021
 30
0.0
 11
15.162933
 21
14.826021
 31
0.0
  0
LINE
  8
FEET_FEMALE
  5
B507F
 10
14.918966
 20
14.946021
 30
0.0
 11
18.2239
 21
14.946021
 31
0.0
  0
ARC
  8
FEET_FEMALE
  5
B5080
 10
15.162933
 20
14.920021
 30
0.0
 40
0.094
 50
217.61768
 51
270.0
  0
ARC
  8
FEET_FEMALE
  5
B5081
 10
15.854933
 20
14.920021
 30
0.0
 40
0.094
 50
270.0
 51
322.38232
  0
ARC
  8
FEET_FEMALE
  5
B5082
 10
16.162933
 20
14.732021
 30
0.0
 40
0.094
 50
90.0
 51
142.38232
  0
ARC
  8
FEET_FEMALE
  5
B5083
 10
14.854933
 20
14.732021
 30
0.0
 40
0.094
 50
37.61768
 51
90.0
  0
ARC
  8
FEET_FEMALE
  5
B5084
 10
14.918966
 20
14.732021
 30
0.0
 40
0.214
 50
37.61768
 51
90.0
  0
ARC
  8
FEET_FEMALE
  5
B5085
 10
16.0989
 20
14.732021
 30
0.0
 40
0.214
 50
90.0
 51
142.38232
  0
ARC
  8
FEET_FEMALE
  5
B5086
 10
15.918966
 20
14.920021
 30
0.0
 40
0.214
 50
270.0
 51
322.38232
  0
ARC
  8
FEET_FEMALE
  5
B5087
 10
15.0989
 20
14.920021
 30
0.0
 40
0.214
 50
217.61768
 51
270.0
  0
LINE
  8
FEET_FEMALE
  5
B5089
 10
18.043966
 20
14.706021
 30
0.0
 11
17.2239
 21
14.706021
 31
0.0
  0
LINE
  8
FEET_FEMALE
  5
B508A
 10
17.287933
 20
14.826021
 30
0.0
 11
17.979933
 21
14.826021
 31
0.0
  0
ARC
  8
FEET_FEMALE
  5
B508B
 10
18.043966
 20
14.920021
 30
0.0
 40
0.214
 50
270.0
 51
322.38232
  0
ARC
  8
FEET_FEMALE
  5
B508C
 10
18.2239
 20
14.732021
 30
0.0
 40
0.214
 50
90.0
 51
142.38232
  0
ARC
  8
FEET_FEMALE
  5
B508D
 10
18.287933
 20
14.732021
 30
0.0
 40
0.094
 50
90.0
 51
142.38232
  0
LINE
  8
FEET_FEMALE
  5
B508E
 10
18.314933
 20
14.946021
 30
0.0
 11
18.2239
 21
14.946021
 31
0.0
  0
LINE
  8
FEET_FEMALE
  5
B508F
 10
18.287933
 20
14.826021
 30
0.0
 11
18.314933
 21
14.826021
 31
0.0
  0
ARC
  8
FEET_FEMALE
  5
B5090
 10
17.979933
 20
14.920021
 30
0.0
 40
0.094
 50
270.0
 51
322.38232
  0
ARC
  8
FEET_FEMALE
  5
B5091
 10
17.2239
 20
14.920021
 30
0.0
 40
0.214
 50
217.61768
 51
270.0
  0
ARC
  8
FEET_FEMALE
  5
B5092
 10
17.043966
 20
14.732021
 30
0.0
 40
0.214
 50
37.61768
 51
90.0
  0
ARC
  8
FEET_FEMALE
  5
B5093
 10
17.287933
 20
14.920021
 30
0.0
 40
0.094
 50
217.61768
 51
270.0
  0
ARC
  8
FEET_FEMALE
  5
B5094
 10
16.979933
 20
14.732021
 30
0.0
 40
0.094
 50
37.61768
 51
90.0
  0
LINE
  8
CENTER
  5
B5095
 10
14.416518
 20
16.869021
 30
0.0
 11
14.952261
 21
16.869021
 31
0.0
  0
LINE
  8
CENTER
  5
B5096
 10
18.189378
 20
16.869021
 30
0.0
 11
18.725121
 21
16.869021
 31
0.0
  0
LINE
  8
CENTER
  5
B5097
 10
10.468679
 20
17.920224
 30
0.0
 11
10.468679
 21
18.460449
 31
0.0
  0
LINE
  8
CENTER
  5
B5098
 10
10.468679
 20
20.905475
 30
0.0
 11
10.468679
 21
21.4457
 31
0.0
  0
LINE
  8
CENTER
  5
B5099
 10
10.782604
 20
21.233652
 30
0.0
 11
10.124589
 21
21.233652
 31
0.0
  0
LINE
  8
CENTER
  5
B509A
 10
10.124589
 20
18.078652
 30
0.0
 11
10.782604
 21
18.078652
 31
0.0
  0
CIRCLE
  8
FEET_FEMALE
  5
B50A1
 10
10.468679
 20
18.078652
 30
0.0
 40
0.077
  0
CIRCLE
  8
FEET_FEMALE
  5
B50A2
 10
10.468679
 20
21.233652
 30
0.0
 40
0.077
  0
ARC
  8
LINK
  5
B50A4
 10
0.025839
 20
14.76897
 30
0.0
 40
1.125
 50
270.0
 51
90.0
  0
LINE
  8
CENTER
  6
CENTER
  5
B50A5
 10
-1.974161
 20
15.29025
 30
0.0
 11
-1.974161
 21
14.24769
 31
0.0
  0
ARC
  8
LINK
  5
B50A6
 10
-1.974161
 20
14.76897
 30
0.0
 40
0.625
 50
90.0
 51
270.0
  0
ARC
  8
LINK
  5
B50A8
 10
-1.974161
 20
14.76897
 30
0.0
 40
1.145
 50
283.265056
 51
76.734944
  0
LINE
  8
LINK
  5
B50A9
 10
-1.974161
 20
15.39397
 30
0.0
 11
-1.974161
 21
15.51897
 31
0.0
  0
LINE
  8
LINK
  5
B50AA
 10
-1.974161
 20
15.51897
 30
0.0
 11
-1.108987
 21
15.51897
 31
0.0
  0
LINE
  8
LINK
  5
B50AB
 10
-1.974161
 20
14.14397
 30
0.0
 11
-1.974161
 21
14.01897
 31
0.0
  0
LINE
  8
LINK
  5
B50AC
 10
-1.974161
 20
14.01897
 30
0.0
 11
-1.108987
 21
14.01897
 31
0.0
  0
LINE
  8
LINK
  5
B50AE
 10
0.025839
 20
15.89397
 30
0.0
 11
-1.693161
 21
15.89397
 31
0.0
  0
LINE
  8
LINK
  5
B50AF
 10
-1.693161
 20
15.89397
 30
0.0
 11
-1.711433
 21
15.88342
 31
0.0
  0
LINE
  8
LINK
  5
B50B0
 10
-1.693161
 20
13.64397
 30
0.0
 11
-1.711433
 21
13.65452
 31
0.0
  0
LINE
  8
LINK
  5
B50B1
 10
0.025839
 20
13.64397
 30
0.0
 11
-1.693161
 21
13.64397
 31
0.0
  0
CIRCLE
  8
LINK
  5
B50B7
 10
-1.246161
 20
14.76897
 30
0.0
 40
0.375
  0
CIRCLE
  8
LINK
  5
B50B8
 10
-1.974161
 20
14.76897
 30
0.0
 40
0.25
  0
LINE
  8
LINK
  5
B50BB
 10
-1.974161
 20
17.007865
 30
0.0
 11
-1.724161
 21
17.007865
 31
0.0
  0
LINE
  8
LINK
  5
B50BD
 10
-2.599161
 20
17.187865
 30
0.0
 11
-2.599161
 21
17.347865
 31
0.0
  0
LINE
  8
LINK
  5
B50BE
 10
-2.599161
 20
17.347865
 30
0.0
 11
-1.711433
 21
17.347865
 31
0.0
  0
LINE
  8
LINK
  5
B50BF
 10
0.837839
 20
20.527865
 30
0.0
 11
0.837839
 21
17.167865
 31
0.0
  0
LINE
  8
LINK
  5
B50C0
 10
0.837839
 20
17.167865
 30
0.0
 11
1.150839
 21
17.167865
 31
0.0
  0
LINE
  8
LINK
  5
B50C1
 10
1.150839
 20
17.007865
 30
0.0
 11
1.150839
 21
17.167865
 31
0.0
  0
LINE
  8
LINK
  5
B50C2
 10
-2.599161
 20
17.187865
 30
0.0
 11
-1.711433
 21
17.187865
 31
0.0
  0
LINE
  8
LINK
  5
B50C4
 10
-1.711433
 20
17.007865
 30
0.0
 11
-1.711433
 21
20.687865
 31
0.0
  0
LINE
  8
LINK
  5
B50C5
 10
-1.724161
 20
17.007865
 30
0.0
 11
-1.724161
 21
17.187865
 31
0.0
  0
LINE
  8
LINK
  5
B50C6
 10
-2.224161
 20
17.089865
 30
0.0
 11
-2.224161
 21
17.187865
 31
0.0
  0
LINE
  8
LINK
  5
B50C8
 10
-1.099161
 20
17.347865
 30
0.0
 11
-1.099161
 21
20.347865
 31
0.0
  0
LINE
  8
LINK
  5
B50CA
 10
-0.884161
 20
17.347865
 30
0.0
 11
-0.884161
 21
20.347865
 31
0.0
  0
LINE
  8
LINK
  5
B50CC
 10
-0.189161
 20
17.347865
 30
0.0
 11
-0.189161
 21
20.347865
 31
0.0
  0
LINE
  8
LINK
  5
B50CE
 10
0.025839
 20
17.347865
 30
0.0
 11
0.025839
 21
20.347865
 31
0.0
  0
LINE
  8
LINK
  5
B50CF
 10
-1.099161
 20
17.347865
 30
0.0
 11
0.025839
 21
17.347865
 31
0.0
  0
LINE
  8
LINK
  5
B50D2
 10
-2.224161
 20
17.089865
 30
0.0
 11
-1.974161
 21
17.007865
 31
0.0
  0
LINE
  8
LINK
  5
B50D3
 10
-1.711433
 20
17.007865
 30
0.0
 11
1.150839
 21
17.007865
 31
0.0
  0
LINE
  8
LINK
  5
B50D4
 10
-1.711433
 20
20.687865
 30
0.0
 11
1.150839
 21
20.687865
 31
0.0
  0
LINE
  8
LINK
  5
B50D5
 10
-2.224161
 20
20.605865
 30
0.0
 11
-1.974161
 21
20.687865
 31
0.0
  0
LINE
  8
LINK
  5
B50D6
 10
-2.599161
 20
20.507865
 30
0.0
 11
-1.711433
 21
20.507865
 31
0.0
  0
LINE
  8
LINK
  5
B50D7
 10
-2.599161
 20
20.347865
 30
0.0
 11
-1.711433
 21
20.347865
 31
0.0
  0
LINE
  8
LINK
  5
B50D8
 10
-2.599161
 20
20.507865
 30
0.0
 11
-2.599161
 21
20.347865
 31
0.0
  0
LINE
  8
LINK
  5
B50D9
 10
-2.224161
 20
20.605865
 30
0.0
 11
-2.224161
 21
20.507865
 31
0.0
  0
LINE
  8
LINK
  5
B50DA
 10
-1.974161
 20
20.687865
 30
0.0
 11
-1.724161
 21
20.687865
 31
0.0
  0
LINE
  8
LINK
  5
B50DB
 10
-1.724161
 20
20.687865
 30
0.0
 11
-1.724161
 21
20.507865
 31
0.0
  0
LINE
  8
LINK
  5
B50DC
 10
0.837839
 20
20.527865
 30
0.0
 11
1.150839
 21
20.527865
 31
0.0
  0
LINE
  8
LINK
  5
B50DD
 10
-1.099161
 20
20.347865
 30
0.0
 11
0.025839
 21
20.347865
 31
0.0
  0
LINE
  8
LINK
  5
B50DF
 10
1.150839
 20
20.687865
 30
0.0
 11
1.150839
 21
20.527865
 31
0.0
  0
LINE
  8
LINK
  5
B50FC
 10
2.55236
 20
15.89397
 30
0.0
 11
6.23236
 21
15.89397
 31
0.0
  0
LINE
  8
LINK
  5
B50FD
 10
6.23236
 20
15.89397
 30
0.0
 11
6.23236
 21
13.64397
 31
0.0
  0
LINE
  8
LINK
  5
B50FE
 10
6.23236
 20
13.64397
 30
0.0
 11
2.55236
 21
13.64397
 31
0.0
  0
LINE
  8
LINK
  5
B50FF
 10
2.55236
 20
13.64397
 30
0.0
 11
2.55236
 21
15.89397
 31
0.0
  0
LINE
  8
LINK
  5
B5100
 10
2.71236
 20
15.51897
 30
0.0
 11
2.71236
 21
13.702788
 31
0.0
  0
LINE
  8
LINK
  5
B5101
 10
2.98636
 20
14.01897
 30
0.0
 11
5.79836
 21
14.01897
 31
0.0
  0
LINE
  8
LINK
  5
B5102
 10
2.71236
 20
15.51897
 30
0.0
 11
6.07236
 21
15.51897
 31
0.0
  0
LINE
  8
LINK
  5
B5103
 10
2.89236
 20
15.42497
 30
0.0
 11
2.89236
 21
13.89797
 31
0.0
  0
ARC
  8
LINK
  5
B5104
 10
2.98636
 20
15.42497
 30
0.0
 40
0.094
 50
90.0
 51
180.0
  0
ARC
  8
LINK
  5
B5105
 10
2.98636
 20
14.11297
 30
0.0
 40
0.094
 50
180.0
 51
270.0
  0
LINE
  8
LINK
  5
B5109
 10
2.71236
 20
13.702788
 30
0.0
 11
6.07236
 21
13.702788
 31
0.0
  0
LINE
  8
LINK
  5
B510A
 10
5.79836
 20
13.80397
 30
0.0
 11
2.98636
 21
13.80397
 31
0.0
  0
ARC
  8
LINK
  5
B510B
 10
2.98636
 20
13.89797
 30
0.0
 40
0.094
 50
180.0
 51
270.0
  0
LINE
  8
LINK
  5
B510C
 10
2.89236
 20
14.01897
 30
0.0
 11
2.71236
 21
14.01897
 31
0.0
  0
LINE
  8
LINK
  5
B510D
 10
5.89236
 20
15.42497
 30
0.0
 11
5.89236
 21
13.89797
 31
0.0
  0
LINE
  8
LINK
  5
B510E
 10
6.07236
 20
15.51897
 30
0.0
 11
6.07236
 21
13.702788
 31
0.0
  0
ARC
  8
LINK
  5
B510F
 10
5.79836
 20
13.89797
 30
0.0
 40
0.094
 50
270.0
 51
0.0
  0
LINE
  8
LINK
  5
B5110
 10
5.89236
 20
14.01897
 30
0.0
 11
6.07236
 21
14.01897
 31
0.0
  0
ARC
  8
LINK
  5
B5111
 10
5.79836
 20
14.11297
 30
0.0
 40
0.094
 50
270.0
 51
0.0
  0
ARC
  8
LINK
  5
B5112
 10
5.79836
 20
15.42497
 30
0.0
 40
0.094
 50
0.0
 51
90.0
  0
ARC
  8
LINK
  5
B511D
 10
5.303753
 20
3.772186
 30
0.0
 40
1.125
 50
270.0
 51
90.0
  0
ARC
  8
LINK
  5
B511E
 10
3.303753
 20
3.772186
 30
0.0
 40
1.145
 50
283.265056
 51
76.734944
  0
LINE
  8
LINK
  5
B5121
 10
5.303753
 20
2.647186
 30
0.0
 11
3.584753
 21
2.647186
 31
0.0
  0
LINE
  8
LINK
  5
B5122
 10
3.584753
 20
2.647186
 30
0.0
 11
3.56648
 21
2.657735
 31
0.0
  0
LINE
  8
LINK
  5
B5127
 10
5.303753
 20
4.897186
 30
0.0
 11
3.584753
 21
4.897186
 31
0.0
  0
LINE
  8
LINK
  5
B5128
 10
3.584753
 20
4.897186
 30
0.0
 11
3.56648
 21
4.886636
 31
0.0
  0
ARC
  8
LINK
  5
B5160
 10
1.432377
 20
3.066529
 30
0.0
 40
1.145
 50
318.754501
 51
97.395363
  0
ARC
  8
LINK
  5
B5161
 10
3.303753
 20
3.772186
 30
0.0
 40
1.125
 50
290.660419
 51
110.660419
  0
LINE
  8
LINK
  5
B5164
 10
3.700685
 20
2.719537
 30
0.0
 11
2.092682
 21
2.113192
 31
0.0
  0
LINE
  8
LINK
  5
B5168
 10
2.906821
 20
4.824835
 30
0.0
 11
1.298373
 21
4.218322
 31
0.0
  0
LINE
  8
LINK
  5
B5169
 10
1.298373
 20
4.218322
 30
0.0
 11
1.284998
 21
4.202004
 31
0.0
  0
ARC
  8
LINK
  5
B516A
 10
0.113803
 20
1.562745
 30
0.0
 40
1.145
 50
346.848583
 51
125.489445
  0
ARC
  8
LINK
  5
B516B
 10
1.432377
 20
3.066529
 30
0.0
 40
1.125
 50
318.754501
 51
138.754501
  0
LINE
  8
LINK
  5
B516E
 10
2.278255
 20
2.324831
 30
0.0
 11
1.144941
 21
1.032329
 31
0.0
  0
LINE
  8
LINK
  5
B5172
 10
0.586499
 20
3.808226
 30
0.0
 11
-0.546815
 21
2.515725
 31
0.0
  0
LINE
  8
LINK
  5
B5173
 10
-0.546815
 20
2.515725
 30
0.0
 11
-0.55093
 21
2.49503
 31
0.0
  0
ARC
  8
LINK
  5
B5174
 10
-0.341247
 20
-0.384799
 30
0.0
 40
1.145
 50
14.942665
 51
153.583527
  0
ARC
  8
LINK
  5
B5175
 10
0.113803
 20
1.562745
 30
0.0
 40
1.125
 50
346.848583
 51
166.848583
  0
LINE
  8
LINK
  5
B5178
 10
1.209297
 20
1.30678
 30
0.0
 11
0.818181
 21
-0.367135
 31
0.0
  0
LINE
  8
LINK
  5
B517C
 10
-0.98169
 20
1.818711
 30
0.0
 11
-1.372806
 21
0.144797
 31
0.0
  0
LINE
  8
LINK
  5
B517D
 10
-1.372806
 20
0.144797
 30
0.0
 11
-1.366691
 21
0.124603
 31
0.0
  0
ARC
  8
LINK
  5
B517E
 10
0.174457
 20
-2.317168
 30
0.0
 40
1.145
 50
43.036747
 51
181.677609
  0
ARC
  8
LINK
  5
B517F
 10
-0.341247
 20
-0.384799
 30
0.0
 40
1.125
 50
14.942665
 51
194.942665
  0
LINE
  8
LINK
  5
B5182
 10
0.74571
 20
-0.094715
 30
0.0
 11
1.188958
 21
-1.755586
 31
0.0
  0
LINE
  8
LINK
  5
B5186
 10
-1.428205
 20
-0.674883
 30
0.0
 11
-0.984956
 21
-2.335754
 31
0.0
  0
LINE
  8
LINK
  5
B5187
 10
-0.984956
 20
-2.335754
 30
0.0
 11
-0.970052
 21
-2.350688
 31
0.0
  0
ARC
  8
LINK
  5
B5188
 10
1.539392
 20
-3.779
 30
0.0
 40
1.145
 50
71.130829
 51
209.771691
  0
ARC
  8
LINK
  5
B5189
 10
0.174457
 20
-2.317168
 30
0.0
 40
1.125
 50
43.036747
 51
223.036747
  0
LINE
  8
LINK
  5
B518C
 10
0.996738
 20
-1.549392
 30
0.0
 11
2.169899
 21
-2.805837
 31
0.0
  0
LINE
  8
LINK
  5
B5190
 10
-0.647823
 20
-3.084943
 30
0.0
 11
0.525338
 21
-4.341388
 31
0.0
  0
LINE
  8
LINK
  5
B5191
 10
0.525338
 20
-4.341388
 30
0.0
 11
0.54552
 21
-4.347544
 31
0.0
  0
ARC
  8
LINK
  5
B5192
 10
3.431911
 20
-4.425817
 30
0.0
 40
1.145
 50
84.395885
 51
237.865774
  0
ARC
  8
LINK
  5
B5193
 10
1.539392
 20
-3.779
 30
0.0
 40
1.125
 50
71.130829
 51
251.130829
  0
LINE
  8
LINK
  5
B5196
 10
1.903226
 20
-2.714458
 30
0.0
 11
3.529846
 21
-3.270397
 31
0.0
  0
LINE
  8
LINK
  5
B5197
 10
3.529846
 20
-3.270397
 30
0.0
 11
3.543725
 21
-3.286289
 31
0.0
  0
LINE
  8
LINK
  5
B519A
 10
1.175558
 20
-4.843542
 30
0.0
 11
2.802178
 21
-5.399481
 31
0.0
  0
LINE
  8
LINK
  5
B519B
 10
2.802178
 20
-5.399481
 30
0.0
 11
2.82288
 21
-5.395407
 31
0.0
  0
ARC
  8
LINK
  5
B51BC
 10
5.303753
 20
3.772186
 30
0.0
 40
1.145
 50
283.265056
 51
76.734944
  0
LINE
  8
LINK
  5
B51BD
 10
7.303753
 20
4.897186
 30
0.0
 11
5.584753
 21
4.897186
 31
0.0
  0
ARC
  8
LINK
  5
B51C0
 10
7.303753
 20
3.772186
 30
0.0
 40
1.125
 50
270.0
 51
90.0
  0
LINE
  8
LINK
  5
B51C3
 10
7.303753
 20
2.647186
 30
0.0
 11
5.584753
 21
2.647186
 31
0.0
  0
LINE
  8
LINK
  5
B51C6
 10
9.803753
 20
4.897186
 30
0.0
 11
7.584753
 21
4.897186
 31
0.0
  0
ARC
  8
LINK
  5
B51C7
 10
7.303753
 20
3.772186
 30
0.0
 40
1.145
 50
283.265056
 51
76.734944
  0
LINE
  8
LINK
  5
B51C8
 10
11.303753
 20
2.647186
 30
0.0
 11
7.584753
 21
2.647186
 31
0.0
  0
ARC
  8
LINK
  5
B51CA
 10
9.303753
 20
3.772186
 30
0.0
 40
1.125
 50
270.0
 51
305.325389
  0
ARC
  8
LINK
  5
B51CF
 10
9.303753
 20
3.772186
 30
0.0
 40
1.145
 50
283.265056
 51
305.671882
  0
ARC
  8
LINK
  5
B51D2
 10
11.303753
 20
3.772186
 30
0.0
 40
1.125
 50
270.0
 51
359.167098
  0
LINE
  8
LINK
  5
B51E0
 10
2.293293
 20
2.311645
 30
0.0
 11
2.132421
 21
2.128177
 31
0.0
  0
LINE
  8
LINK
  5
B51E1
 10
1.228772
 20
1.302229
 30
0.0
 11
1.173254
 21
1.06462
 31
0.0
  0
LINE
  8
LINK
  5
B51E2
 10
0.765034
 20
-0.089558
 30
0.0
 11
0.827952
 21
-0.325316
 31
0.0
  0
LINE
  8
LINK
  5
B51E3
 10
1.011356
 20
-1.535743
 30
0.0
 11
1.177885
 21
-1.714093
 31
0.0
  0
LINE
  8
LINK
  5
B51E4
 10
1.909695
 20
-2.695533
 30
0.0
 11
2.140591
 21
-2.774447
 31
0.0
  0
ARC
  8
LINK
  6
HIDDEN
 62
     1
  5
B51FB
 10
17.431911
 20
-4.425817
 30
0.0
 40
0.625
 50
270.0
 51
90.0
  0
CIRCLE
  8
LINK
  6
HIDDEN
 62
     1
  5
B5206
 10
17.431911
 20
-4.425817
 30
0.0
 40
0.25
  0
CIRCLE
  8
LINK
  6
HIDDEN
 62
     1
  5
B5209
 10
16.703911
 20
-4.425817
 30
0.0
 40
0.375
  0
LINE
  8
LINK
  6
HIDDEN
 62
     1
  5
B520A
 10
17.431911
 20
-5.175817
 30
0.0
 11
16.566738
 21
-5.175817
 31
0.0
  0
LINE
  8
LINK
  6
HIDDEN
 62
     1
  5
B520D
 10
17.431911
 20
-5.050817
 30
0.0
 11
17.431911
 21
-5.175817
 31
0.0
  0
LINE
  8
LINK
  6
HIDDEN
 62
     1
  5
B520E
 10
17.431911
 20
-3.675817
 30
0.0
 11
16.566738
 21
-3.675817
 31
0.0
  0
LINE
  8
LINK
  6
HIDDEN
 62
     1
  5
B520F
 10
17.431911
 20
-3.800817
 30
0.0
 11
17.431911
 21
-3.675817
 31
0.0
  0
ARC
  8
LINK
  5
B5211
 10
7.431911
 20
-4.425817
 30
0.0
 40
1.145
 50
103.265056
 51
256.734944
  0
LINE
  8
LINK
  5
B5212
 10
5.431911
 20
-5.550817
 30
0.0
 11
7.150911
 21
-5.550817
 31
0.0
  0
LINE
  8
LINK
  5
B5213
 10
5.431911
 20
-3.300817
 30
0.0
 11
7.150911
 21
-3.300817
 31
0.0
  0
ARC
  8
LINK
  5
B5214
 10
5.431911
 20
-4.425817
 30
0.0
 40
1.125
 50
90.0
 51
270.0
  0
LINE
  8
LINK
  5
B5216
 10
7.150911
 20
-5.550817
 30
0.0
 11
7.169184
 21
-5.540267
 31
0.0
  0
LINE
  8
LINK
  5
B5217
 10
7.150911
 20
-3.300817
 30
0.0
 11
7.169184
 21
-3.311366
 31
0.0
  0
ARC
  8
LINK
  5
B5218
 10
9.431911
 20
-4.425817
 30
0.0
 40
1.145
 50
103.265056
 51
256.734944
  0
LINE
  8
LINK
  5
B5219
 10
7.431911
 20
-5.550817
 30
0.0
 11
9.150911
 21
-5.550817
 31
0.0
  0
LINE
  8
LINK
  5
B521A
 10
7.431911
 20
-3.300817
 30
0.0
 11
9.150911
 21
-3.300817
 31
0.0
  0
ARC
  8
LINK
  5
B521B
 10
7.431911
 20
-4.425817
 30
0.0
 40
1.125
 50
90.0
 51
270.0
  0
LINE
  8
LINK
  5
B521D
 10
9.150911
 20
-5.550817
 30
0.0
 11
9.169184
 21
-5.540267
 31
0.0
  0
LINE
  8
LINK
  5
B521E
 10
9.150911
 20
-3.300817
 30
0.0
 11
9.169184
 21
-3.311366
 31
0.0
  0
ARC
  8
LINK
  5
B521F
 10
11.431911
 20
-4.425817
 30
0.0
 40
1.145
 50
103.265056
 51
256.734944
  0
LINE
  8
LINK
  5
B5220
 10
9.431911
 20
-5.550817
 30
0.0
 11
11.150911
 21
-5.550817
 31
0.0
  0
LINE
  8
LINK
  5
B5221
 10
9.431911
 20
-3.300817
 30
0.0
 11
11.150911
 21
-3.300817
 31
0.0
  0
ARC
  8
LINK
  5
B5222
 10
9.431911
 20
-4.425817
 30
0.0
 40
1.125
 50
90.0
 51
270.0
  0
LINE
  8
LINK
  5
B5224
 10
11.150911
 20
-5.550817
 30
0.0
 11
11.169184
 21
-5.540267
 31
0.0
  0
LINE
  8
LINK
  5
B5225
 10
11.150911
 20
-3.300817
 30
0.0
 11
11.169184
 21
-3.311366
 31
0.0
  0
ARC
  8
LINK
  5
B5226
 10
13.431911
 20
-4.425817
 30
0.0
 40
1.145
 50
103.265056
 51
256.734944
  0
LINE
  8
LINK
  5
B5227
 10
11.431911
 20
-5.550817
 30
0.0
 11
13.150911
 21
-5.550817
 31
0.0
  0
LINE
  8
LINK
  5
B5228
 10
11.431911
 20
-3.300817
 30
0.0
 11
13.150911
 21
-3.300817
 31
0.0
  0
ARC
  8
LINK
  5
B5229
 10
11.431911
 20
-4.425817
 30
0.0
 40
1.125
 50
90.0
 51
270.0
  0
LINE
  8
LINK
  5
B522B
 10
13.150911
 20
-5.550817
 30
0.0
 11
13.169184
 21
-5.540267
 31
0.0
  0
LINE
  8
LINK
  5
B522C
 10
13.150911
 20
-3.300817
 30
0.0
 11
13.169184
 21
-3.311366
 31
0.0
  0
LINE
  8
LINK
  5
B5232
 10
13.150911
 20
-5.550817
 30
0.0
 11
13.169184
 21
-5.540267
 31
0.0
  0
LINE
  8
LINK
  5
B5233
 10
13.150911
 20
-3.300817
 30
0.0
 11
13.169184
 21
-3.311366
 31
0.0
  0
ARC
  8
LINK
  5
B523B
 10
13.431911
 20
-4.425817
 30
0.0
 40
1.125
 50
90.0
 51
270.0
  0
LINE
  8
LINK
  5
B523D
 10
13.431911
 20
-3.300817
 30
0.0
 11
15.150911
 21
-3.300817
 31
0.0
  0
LINE
  8
LINK
  5
B523E
 10
15.431911
 20
-5.550817
 30
0.0
 11
9.641246
 21
-5.550817
 31
0.0
  0
LINE
  8
LINK
  5
B5240
 10
15.431911
 20
-3.300817
 30
0.0
 11
17.150911
 21
-3.300817
 31
0.0
  0
LINE
  8
LINK
  5
B5241
 10
15.431911
 20
-5.550817
 30
0.0
 11
15.931911
 21
-5.550817
 31
0.0
  0
ARC
  8
LINK
  5
B5242
 10
17.431911
 20
-4.425817
 30
0.0
 40
1.145
 50
103.265056
 51
119.657865
  0
ARC
  8
LINK
  5
B5243
 10
15.431911
 20
-4.425817
 30
0.0
 40
1.125
 50
90.0
 51
270.0
  0
ARC
  8
LINK
  5
B5244
 10
15.431911
 20
-4.425817
 30
0.0
 40
1.145
 50
103.265056
 51
256.734944
  0
LINE
  8
LINK
  5
B5245
 10
15.150911
 20
-5.550817
 30
0.0
 11
15.169184
 21
-5.540267
 31
0.0
  0
LINE
  8
LINK
  5
B5247
 10
15.150911
 20
-3.300817
 30
0.0
 11
15.169184
 21
-3.311366
 31
0.0
  0
LINE
  8
LINK
 62
     1
  5
B524A
 10
17.150911
 20
-5.550817
 30
0.0
 11
17.169184
 21
-5.540267
 31
0.0
  0
LINE
  8
LINK
  5
B524F
 10
17.150911
 20
-3.300817
 30
0.0
 11
17.169184
 21
-3.311366
 31
0.0
  0
LINE
  8
FEET_FEMALE
  5
B5254
 10
16.311911
 20
-3.430817
 30
0.0
 11
17.289747
 21
-3.430817
 31
0.0
  0
LINE
  8
FEET_FEMALE
  6
HIDDEN
 62
     1
  5
B5255
 10
18.401944
 20
-5.550817
 30
0.0
 11
15.931911
 21
-5.550817
 31
0.0
  0
LINE
  8
FEET_FEMALE
  5
B5256
 10
19.431911
 20
-5.670817
 30
0.0
 11
15.931911
 21
-5.670817
 31
0.0
  0
LINE
  8
FEET_FEMALE
  5
B5257
 10
15.931911
 20
-5.670817
 30
0.0
 11
15.931911
 21
-3.810817
 31
0.0
  0
ARC
  8
FEET_FEMALE
  5
B5259
 10
16.311911
 20
-3.810817
 30
0.0
 40
0.38
 50
90.0
 51
180.0
  0
CIRCLE
  8
FEET_FEMALE
  5
B525B
 10
16.431911
 20
-3.627817
 30
0.0
 40
0.077
  0
LINE
  8
FEET_FEMALE
  5
B525C
 10
19.431911
 20
-5.790817
 30
0.0
 11
18.645911
 21
-5.790817
 31
0.0
  0
LINE
  8
FEET_FEMALE
  5
B525D
 10
19.30133
 20
-5.057211
 30
0.0
 11
17.539166
 21
-3.524128
 31
0.0
  0
ARC
  8
FEET_FEMALE
  6
HIDDEN
 62
     1
  5
B525E
 10
18.645911
 20
-5.576817
 30
0.0
 40
0.094
 50
217.61768
 51
270.0
  0
ARC
  8
FEET_FEMALE
  5
B525F
 10
18.401944
 20
-5.764817
 30
0.0
 40
0.094
 50
37.61768
 51
90.0
  0
ARC
  8
FEET_FEMALE
  5
B5260
 10
18.645911
 20
-5.576817
 30
0.0
 40
0.214
 50
217.61768
 51
270.0
  0
ARC
  8
FEET_FEMALE
  6
HIDDEN
 62
     1
  5
B5261
 10
18.401944
 20
-5.764817
 30
0.0
 40
0.214
 50
37.61768
 51
90.0
  0
ARC
  8
FEET_FEMALE
  5
B5262
 10
17.289747
 20
-3.810817
 30
0.0
 40
0.38
 50
48.976731
 51
90.0
  0
LINE
  8
FEET_FEMALE
  5
B5263
 10
19.431911
 20
-5.790817
 30
0.0
 11
19.431911
 21
-5.343899
 31
0.0
  0
ARC
  8
FEET_FEMALE
  5
B5265
 10
19.051911
 20
-5.343899
 30
0.0
 40
0.38
 50
0.0
 51
48.976731
  0
ARC
  8
LINK
  6
HIDDEN
 62
     1
  5
B5551
 10
17.431911
 20
-4.425817
 30
0.0
 40
1.145
 50
119.657865
 51
256.734944
  0
LINE
  8
FEET_FEMALE
  5
B5553
 10
10.183753
 20
2.777186
 30
0.0
 11
11.161589
 21
2.777186
 31
0.0
  0
LINE
  8
FEET_FEMALE
  6
HIDDEN
 62
     1
  5
B5554
 10
12.273786
 20
4.897186
 30
0.0
 11
9.803753
 21
4.897186
 31
0.0
  0
LINE
  8
FEET_FEMALE
  5
B5555
 10
13.303753
 20
5.017186
 30
0.0
 11
9.803753
 21
5.017186
 31
0.0
  0
LINE
  8
FEET_FEMALE
  5
B5556
 10
9.803753
 20
5.017186
 30
0.0
 11
9.803753
 21
3.157186
 31
0.0
  0
ARC
  8
FEET_FEMALE
  5
B5558
 10
10.183753
 20
3.157186
 30
0.0
 40
0.38
 50
180.0
 51
270.0
  0
CIRCLE
  8
FEET_FEMALE
  5
B555A
 10
10.303753
 20
2.974186
 30
0.0
 40
0.077
  0
LINE
  8
FEET_FEMALE
  5
B555B
 10
13.303753
 20
5.137186
 30
0.0
 11
12.517753
 21
5.137186
 31
0.0
  0
LINE
  8
FEET_FEMALE
  5
B555C
 10
13.173172
 20
4.40358
 30
0.0
 11
11.411008
 21
2.870497
 31
0.0
  0
ARC
  8
FEET_FEMALE
  6
HIDDEN
 62
     1
  5
B555D
 10
12.517753
 20
4.923186
 30
0.0
 40
0.094
 50
90.0
 51
142.38232
  0
ARC
  8
FEET_FEMALE
  5
B555E
 10
12.273786
 20
5.111186
 30
0.0
 40
0.094
 50
270.0
 51
322.38232
  0
ARC
  8
FEET_FEMALE
  5
B555F
 10
12.517753
 20
4.923186
 30
0.0
 40
0.214
 50
90.0
 51
142.38232
  0
ARC
  8
FEET_FEMALE
  6
HIDDEN
 62
     1
  5
B5560
 10
12.273786
 20
5.111186
 30
0.0
 40
0.214
 50
270.0
 51
322.38232
  0
ARC
  8
FEET_FEMALE
  5
B5561
 10
11.161589
 20
3.157186
 30
0.0
 40
0.38
 50
270.0
 51
311.023269
  0
LINE
  8
FEET_FEMALE
  5
B5562
 10
13.303753
 20
5.137186
 30
0.0
 11
13.303753
 21
4.690269
 31
0.0
  0
ARC
  8
FEET_FEMALE
  5
B5564
 10
12.923753
 20
4.690269
 30
0.0
 40
0.38
 50
311.023269
 51
0.0
  0
ARC
  8
LINK
  6
HIDDEN
 62
     1
  5
B5565
 10
11.303753
 20
3.772186
 30
0.0
 40
1.125
 50
359.167098
 51
90.0
  0
ARC
  8
LINK
  6
HIDDEN
 62
     1
  5
B5566
 10
9.303753
 20
3.772186
 30
0.0
 40
1.125
 50
305.325389
 51
63.6122
  0
ARC
  8
LINK
  6
HIDDEN
 62
     1
  5
B5567
 10
9.303753
 20
3.772186
 30
0.0
 40
1.145
 50
305.671882
 51
64.107679
  0
ARC
  8
LINK
  5
B5568
 10
9.303753
 20
3.772186
 30
0.0
 40
1.125
 50
63.6122
 51
90.0
  0
ARC
  8
LINK
  5
B5569
 10
9.303753
 20
3.772186
 30
0.0
 40
1.145
 50
64.107679
 51
76.734944
  0
LINE
  8
LINK
  5
B5577
 10
-1.466247
 20
10.514509
 30
0.0
 11
9.803753
 21
10.514509
 31
0.0
  0
LINE
  8
LINK
  5
B5578
 10
-1.466247
 20
6.834509
 30
0.0
 11
9.803753
 21
6.834509
 31
0.0
  0
LINE
  8
LINK
  5
B5579
 10
9.56648
 20
6.834509
 30
0.0
 11
9.56648
 21
10.514509
 31
0.0
  0
LINE
  8
LINK
  6
HIDDEN
 62
     1
  5
B557B
 10
10.178753
 20
10.174509
 30
0.0
 11
11.303753
 21
10.174509
 31
0.0
  0
LINE
  8
LINK
  6
HIDDEN
 62
     1
  5
B557C
 10
10.178753
 20
7.174509
 30
0.0
 11
11.303753
 21
7.174509
 31
0.0
  0
LINE
  8
LINK
  6
HIDDEN
 62
     1
  5
B557D
 10
10.178753
 20
7.174509
 30
0.0
 11
10.178753
 21
10.174509
 31
0.0
  0
LINE
  8
LINK
  6
HIDDEN
 62
     1
  5
B557E
 10
10.393753
 20
7.174509
 30
0.0
 11
10.393753
 21
10.174509
 31
0.0
  0
LINE
  8
LINK
  6
HIDDEN
 62
     1
  5
B5580
 10
11.088753
 20
7.174509
 30
0.0
 11
11.088753
 21
10.174509
 31
0.0
  0
LINE
  8
LINK
  6
HIDDEN
 62
     1
  5
B5581
 10
11.303753
 20
7.174509
 30
0.0
 11
11.303753
 21
10.174509
 31
0.0
  0
LINE
  8
LINK
  6
HIDDEN
 62
     1
  5
B5582
 10
12.115753
 20
10.354509
 30
0.0
 11
12.115753
 21
6.994509
 31
0.0
  0
LINE
  8
LINK
  6
HIDDEN
 62
     1
  5
B5583
 10
12.115753
 20
6.994509
 30
0.0
 11
12.428753
 21
6.994509
 31
0.0
  0
LINE
  8
LINK
  6
HIDDEN
 62
     1
  5
B5584
 10
12.428753
 20
6.834509
 30
0.0
 11
12.428753
 21
6.994509
 31
0.0
  0
LINE
  8
LINK
  6
HIDDEN
 62
     1
  5
B5585
 10
12.115753
 20
10.354509
 30
0.0
 11
12.428753
 21
10.354509
 31
0.0
  0
LINE
  8
LINK
  6
HIDDEN
 62
     1
  5
B5586
 10
12.428753
 20
10.514509
 30
0.0
 11
12.428753
 21
10.354509
 31
0.0
  0
LINE
  8
LINK
  5
B5589
 10
8.178753
 20
10.174509
 30
0.0
 11
9.303753
 21
10.174509
 31
0.0
  0
LINE
  8
LINK
  5
B558A
 10
8.178753
 20
7.174509
 30
0.0
 11
9.303753
 21
7.174509
 31
0.0
  0
LINE
  8
LINK
  5
B558B
 10
8.178753
 20
7.174509
 30
0.0
 11
8.178753
 21
10.174509
 31
0.0
  0
LINE
  8
LINK
  5
B558C
 10
8.393753
 20
7.174509
 30
0.0
 11
8.393753
 21
10.174509
 31
0.0
  0
LINE
  8
LINK
  5
B558E
 10
9.088753
 20
7.174509
 30
0.0
 11
9.088753
 21
10.174509
 31
0.0
  0
LINE
  8
LINK
  5
B558F
 10
9.303753
 20
7.174509
 30
0.0
 11
9.303753
 21
10.174509
 31
0.0
  0
LINE
  8
LINK
  5
B5590
 10
7.56648
 20
6.834509
 30
0.0
 11
7.56648
 21
10.514509
 31
0.0
  0
LINE
  8
LINK
  5
B5591
 10
5.56648
 20
6.834509
 30
0.0
 11
5.56648
 21
10.514509
 31
0.0
  0
LINE
  8
LINK
  5
B5592
 10
7.303753
 20
7.174509
 30
0.0
 11
7.303753
 21
10.174509
 31
0.0
  0
LINE
  8
LINK
  5
B5593
 10
7.088753
 20
7.174509
 30
0.0
 11
7.088753
 21
10.174509
 31
0.0
  0
LINE
  8
LINK
  5
B5594
 10
6.393753
 20
7.174509
 30
0.0
 11
6.393753
 21
10.174509
 31
0.0
  0
LINE
  8
LINK
  5
B5595
 10
6.178753
 20
7.174509
 30
0.0
 11
6.178753
 21
10.174509
 31
0.0
  0
LINE
  8
LINK
  5
B5596
 10
6.178753
 20
7.174509
 30
0.0
 11
7.303753
 21
7.174509
 31
0.0
  0
LINE
  8
LINK
  5
B5597
 10
6.178753
 20
10.174509
 30
0.0
 11
7.303753
 21
10.174509
 31
0.0
  0
LINE
  8
LINK
  5
B5598
 10
3.56648
 20
6.834509
 30
0.0
 11
3.56648
 21
10.514509
 31
0.0
  0
LINE
  8
LINK
  5
B5599
 10
5.303753
 20
7.174509
 30
0.0
 11
5.303753
 21
10.174509
 31
0.0
  0
LINE
  8
LINK
  5
B559A
 10
5.088753
 20
7.174509
 30
0.0
 11
5.088753
 21
10.174509
 31
0.0
  0
LINE
  8
LINK
  5
B559B
 10
4.393753
 20
7.174509
 30
0.0
 11
4.393753
 21
10.174509
 31
0.0
  0
LINE
  8
LINK
  5
B559C
 10
4.178753
 20
7.174509
 30
0.0
 11
4.178753
 21
10.174509
 31
0.0
  0
LINE
  8
LINK
  5
B559D
 10
4.178753
 20
7.174509
 30
0.0
 11
5.303753
 21
7.174509
 31
0.0
  0
LINE
  8
LINK
  5
B559E
 10
4.178753
 20
10.174509
 30
0.0
 11
5.303753
 21
10.174509
 31
0.0
  0
LINE
  8
LINK
  5
B55A0
 10
-1.466247
 20
6.834509
 30
0.0
 11
-1.466247
 21
10.514509
 31
0.0
  0
LINE
  8
LINK
  5
B55A2
 10
-1.237656
 20
7.174509
 30
0.0
 11
-1.237656
 21
10.174509
 31
0.0
  0
LINE
  8
LINK
  5
B55A4
 10
-0.98169
 20
7.174509
 30
0.0
 11
-0.98169
 21
10.174509
 31
0.0
  0
LINE
  8
LINK
  5
B55A6
 10
-0.155199
 20
7.174509
 30
0.0
 11
-0.155199
 21
10.174509
 31
0.0
  0
LINE
  8
LINK
  5
B55A8
 10
0.148205
 20
7.174509
 30
0.0
 11
0.148205
 21
10.174509
 31
0.0
  0
LINE
  8
LINK
  5
B55AA
 10
0.586499
 20
7.174509
 30
0.0
 11
0.586499
 21
10.174509
 31
0.0
  0
LINE
  8
LINK
  5
B55AC
 10
1.854172
 20
7.174509
 30
0.0
 11
1.854172
 21
10.174509
 31
0.0
  0
LINE
  8
LINK
  5
B55AE
 10
2.131203
 20
7.174509
 30
0.0
 11
2.131203
 21
10.174509
 31
0.0
  0
LINE
  8
LINK
  5
B55B0
 10
2.906821
 20
7.174509
 30
0.0
 11
2.906821
 21
10.174509
 31
0.0
  0
LINE
  8
LINK
  5
B55B2
 10
2.781506
 20
7.174509
 30
0.0
 11
2.781506
 21
10.174509
 31
0.0
  0
LINE
  8
LINK
  5
B55B3
 10
-1.237656
 20
10.174509
 30
0.0
 11
-0.98169
 21
10.174509
 31
0.0
  0
LINE
  8
LINK
  5
B55B4
 10
-0.155199
 20
10.174509
 30
0.0
 11
0.586499
 21
10.174509
 31
0.0
  0
LINE
  8
LINK
  5
B55B5
 10
1.854172
 20
10.174509
 30
0.0
 11
2.906821
 21
10.174509
 31
0.0
  0
LINE
  8
LINK
  5
B55B6
 10
2.906821
 20
7.174509
 30
0.0
 11
1.854172
 21
7.174509
 31
0.0
  0
LINE
  8
LINK
  5
B55B7
 10
0.586499
 20
7.174509
 30
0.0
 11
-0.155199
 21
7.174509
 31
0.0
  0
LINE
  8
LINK
  5
B55B8
 10
-1.237656
 20
7.174509
 30
0.0
 11
-0.98169
 21
7.174509
 31
0.0
  0
LINE
  8
LINK
  5
B55BA
 10
1.298373
 20
6.834509
 30
0.0
 11
1.298373
 21
10.514509
 31
0.0
  0
LINE
  8
LINK
  5
B55BC
 10
-0.55093
 20
6.834509
 30
0.0
 11
-0.55093
 21
10.514509
 31
0.0
  0
LINE
  8
FEET_FEMALE
  5
B55BE
 10
9.803753
 20
6.717009
 30
0.0
 11
13.303753
 21
6.717009
 31
0.0
  0
LINE
  8
FEET_FEMALE
  6
HIDDEN
 62
     1
  5
B55BF
 10
9.803753
 20
6.837009
 30
0.0
 11
13.303753
 21
6.837009
 31
0.0
  0
LINE
  8
FEET_FEMALE
  5
B55C0
 10
13.303753
 20
10.632009
 30
0.0
 11
9.803753
 21
10.632009
 31
0.0
  0
LINE
  8
FEET_FEMALE
  6
HIDDEN
 62
     1
  5
B55C1
 10
13.303753
 20
10.512009
 30
0.0
 11
9.803753
 21
10.512009
 31
0.0
  0
LINE
  8
FEET_FEMALE
  5
B55C2
 10
9.803753
 20
10.632009
 30
0.0
 11
9.803753
 21
6.717009
 31
0.0
  0
CIRCLE
  8
FEET_FEMALE
  5
B55C4
 10
10.303753
 20
7.097009
 30
0.0
 40
0.077
  0
CIRCLE
  8
FEET_FEMALE
  5
B55C8
 10
10.303753
 20
10.252009
 30
0.0
 40
0.077
  0
ARC
  8
FEET_FEMALE
  5
B55C9
 10
12.923753
 20
9.846009
 30
0.0
 40
0.172
 50
0.0
 51
180.0
  0
ARC
  8
FEET_FEMALE
  5
B55CA
 10
12.923753
 20
9.628009
 30
0.0
 40
0.172
 50
180.0
 51
0.0
  0
LINE
  8
FEET_FEMALE
  5
B55CC
 10
12.517753
 20
9.297009
 30
0.0
 11
13.303753
 21
9.297009
 31
0.0
  0
LINE
  8
FEET_FEMALE
  5
B55CD
 10
12.517753
 20
10.177009
 30
0.0
 11
13.303753
 21
10.177009
 31
0.0
  0
ARC
  8
FEET_FEMALE
  5
B55CE
 10
12.923753
 20
7.721009
 30
0.0
 40
0.172
 50
0.0
 51
180.0
  0
LINE
  8
FEET_FEMALE
  5
B55D0
 10
12.517753
 20
8.052009
 30
0.0
 11
13.303753
 21
8.052009
 31
0.0
  0
LINE
  8
FEET_FEMALE
  5
B55D1
 10
12.517753
 20
7.172009
 30
0.0
 11
13.303753
 21
7.172009
 31
0.0
  0
ARC
  8
FEET_FEMALE
  5
B55D2
 10
12.923753
 20
7.503009
 30
0.0
 40
0.172
 50
180.0
 51
0.0
  0
LINE
  8
FEET_FEMALE
  5
B55D3
 10
12.423753
 20
9.391009
 30
0.0
 11
12.423753
 21
10.083009
 31
0.0
  0
LINE
  8
FEET_FEMALE
  5
B55D4
 10
12.751753
 20
7.503009
 30
0.0
 11
12.751753
 21
7.721009
 31
0.0
  0
LINE
  8
FEET_FEMALE
  5
B55D5
 10
12.423753
 20
7.266009
 30
0.0
 11
12.423753
 21
7.958009
 31
0.0
  0
ARC
  8
FEET_FEMALE
  5
B55D6
 10
12.517753
 20
7.266009
 30
0.0
 40
0.094
 50
180.0
 51
270.0
  0
ARC
  8
FEET_FEMALE
  5
B55D7
 10
12.517753
 20
7.958009
 30
0.0
 40
0.094
 50
90.0
 51
180.0
  0
ARC
  8
FEET_FEMALE
  5
B55D8
 10
12.517753
 20
9.391009
 30
0.0
 40
0.094
 50
180.0
 51
270.0
  0
ARC
  8
FEET_FEMALE
  5
B55D9
 10
12.517753
 20
10.083009
 30
0.0
 40
0.094
 50
90.0
 51
180.0
  0
LINE
  8
FEET_FEMALE
  5
B55DA
 10
12.751753
 20
9.628009
 30
0.0
 11
12.751753
 21
9.846009
 31
0.0
  0
LINE
  8
FEET_FEMALE
  5
B55DC
 10
13.303753
 20
6.717009
 30
0.0
 11
13.303753
 21
10.632009
 31
0.0
  0
LINE
  8
FEET_FEMALE
  5
B55DD
 10
13.095753
 20
7.721009
 30
0.0
 11
13.095753
 21
7.503009
 31
0.0
  0
LINE
  8
FEET_FEMALE
  5
B55DE
 10
13.095753
 20
9.846009
 30
0.0
 11
13.095753
 21
9.628009
 31
0.0
  0
ARC
  8
LINK
  5
B56DE
 10
24.269912
 20
-4.425817
 30
0.0
 40
1.125
 50
90.0
 51
270.0
  0
ARC
  8
LINK
  5
B56DF
 10
24.269912
 20
-4.425817
 30
0.0
 40
1.145
 50
103.265056
 51
256.734944
  0
ARC
  8
LINK
  5
B56E0
 10
22.269912
 20
-4.425817
 30
0.0
 40
1.125
 50
90.0
 51
270.0
  0
LINE
  8
LINK
  5
B56E5
 10
23.988912
 20
-5.550817
 30
0.0
 11
24.007185
 21
-5.540267
 31
0.0
  0
LINE
  8
LINK
  5
B56E7
 10
22.269912
 20
-3.300817
 30
0.0
 11
23.988912
 21
-3.300817
 31
0.0
  0
LINE
  8
LINK
  5
B56EB
 10
23.988912
 20
-3.300817
 30
0.0
 11
24.007185
 21
-3.311366
 31
0.0
  0
ARC
  8
LINK
  6
HIDDEN
 62
     1
  5
B56EC
 10
26.269912
 20
-4.425817
 30
0.0
 40
1.145
 50
103.265056
 51
256.734944
  0
LINE
  8
LINK
  6
HIDDEN
 62
     1
  5
B56EE
 10
26.269912
 20
-5.050817
 30
0.0
 11
26.269912
 21
-5.175817
 31
0.0
  0
LINE
  8
LINK
  6
HIDDEN
 62
     1
  5
B56F0
 10
26.269912
 20
-5.175817
 30
0.0
 11
25.404739
 21
-5.175817
 31
0.0
  0
LINE
  8
LINK
  5
B56F1
 10
22.269912
 20
-5.550817
 30
0.0
 11
23.988912
 21
-5.550817
 31
0.0
  0
LINE
  8
LINK
 62
     1
  5
B56F2
 10
27.050912
 20
-5.550817
 30
0.0
 11
27.032639
 21
-5.540267
 31
0.0
  0
LINE
  8
LINK
  6
HIDDEN
 62
     1
  5
B56F8
 10
26.269912
 20
-3.675817
 30
0.0
 11
25.404739
 21
-3.675817
 31
0.0
  0
CIRCLE
  8
LINK
  6
HIDDEN
 62
     1
  5
B56F9
 10
26.269912
 20
-4.425817
 30
0.0
 40
0.25
  0
CIRCLE
  8
LINK
  6
HIDDEN
 62
     1
  5
B56FD
 10
25.541912
 20
-4.425817
 30
0.0
 40
0.375
  0
ARC
  8
LINK
  6
HIDDEN
 62
     1
  5
B5702
 10
26.269912
 20
-4.425817
 30
0.0
 40
0.625
 50
270.0
 51
90.0
  0
LINE
  8
LINK
  6
HIDDEN
 62
     1
  5
B5704
 10
26.269912
 20
-3.800817
 30
0.0
 11
26.269912
 21
-3.675817
 31
0.0
  0
LINE
  8
FEET_MALE
  6
HIDDEN
 62
     1
  5
B58D0
 10
24.769912
 20
-5.550817
 30
0.0
 11
28.055912
 21
-5.550817
 31
0.0
  0
LINE
  8
FEET_MALE
  5
B58D1
 10
24.769912
 20
-5.670817
 30
0.0
 11
28.055912
 21
-5.670817
 31
0.0
  0
LINE
  8
FEET_MALE
  5
B58D2
 10
24.769912
 20
-3.180817
 30
0.0
 11
28.055912
 21
-3.180817
 31
0.0
  0
LINE
  8
FEET_MALE
  6
HIDDEN
 62
     1
  5
B58D3
 10
24.769912
 20
-3.300817
 30
0.0
 11
28.055912
 21
-3.300817
 31
0.0
  0
LINE
  8
FEET_MALE
  5
B58D4
 10
24.769912
 20
-4.425817
 30
0.0
 11
28.269912
 21
-4.425817
 31
0.0
  0
LINE
  8
FEET_MALE
  5
B58D5
 10
28.149912
 20
-3.086817
 30
0.0
 11
28.149912
 21
-2.355817
 31
0.0
  0
LINE
  8
FEET_MALE
  5
B58D6
 10
28.269912
 20
-3.086817
 30
0.0
 11
28.269912
 21
-2.355817
 31
0.0
  0
LINE
  8
FEET_MALE
  5
B58D7
 10
28.269912
 20
-4.425817
 30
0.0
 11
28.269912
 21
-5.490817
 31
0.0
  0
LINE
  8
CENTER
  5
B58D8
 10
28.52357
 20
-6.115817
 30
0.0
 11
28.02709
 21
-6.115817
 31
0.0
  0
LINE
  8
FEET_MALE
  5
B58D9
 10
28.269912
 20
-5.790817
 30
0.0
 11
28.269912
 21
-6.495817
 31
0.0
  0
LINE
  8
FEET_MALE
  5
B58DA
 10
28.149912
 20
-5.790817
 30
0.0
 11
28.149912
 21
-6.495817
 31
0.0
  0
LINE
  8
FEET_MALE
  5
B58DB
 10
28.269912
 20
-6.495817
 30
0.0
 11
28.149912
 21
-6.495817
 31
0.0
  0
ARC
  8
FEET_MALE
  5
B58DC
 10
28.032399
 20
-5.78719
 30
0.0
 40
0.237541
 50
359.125349
 51
84.319299
  0
LINE
  8
FEET_MALE
  5
B58DD
 10
28.269912
 20
-5.490817
 30
0.0
 11
28.055912
 21
-5.490817
 31
0.0
  0
LINE
  8
FEET_MALE
  5
B58DE
 10
28.055912
 20
-5.670817
 30
0.0
 11
28.055912
 21
-5.490817
 31
0.0
  0
ARC
  8
FEET_MALE
  5
B58DF
 10
28.0307
 20
-5.787383
 30
0.0
 40
0.119262
 50
358.350076
 51
77.795487
  0
LINE
  8
CENTER
  5
B58E0
 10
28.52357
 20
-2.735817
 30
0.0
 11
28.02709
 21
-2.735817
 31
0.0
  0
LINE
  8
FEET_MALE
  5
B58E1
 10
28.269912
 20
-4.425817
 30
0.0
 11
28.269912
 21
-3.360817
 31
0.0
  0
ARC
  8
FEET_MALE
  5
B58E2
 10
28.055912
 20
-3.086817
 30
0.0
 40
0.214
 50
270.0
 51
0.0
  0
ARC
  8
FEET_MALE
  5
B58E3
 10
28.055912
 20
-3.086817
 30
0.0
 40
0.094
 50
270.0
 51
0.0
  0
LINE
  8
FEET_MALE
  5
B58E4
 10
28.269912
 20
-3.360817
 30
0.0
 11
28.055912
 21
-3.360817
 31
0.0
  0
LINE
  8
FEET_MALE
  5
B58E5
 10
28.055912
 20
-3.180817
 30
0.0
 11
28.055912
 21
-3.360817
 31
0.0
  0
LINE
  8
FEET_MALE
  5
B58E6
 10
28.269912
 20
-2.355817
 30
0.0
 11
28.149912
 21
-2.355817
 31
0.0
  0
LINE
  8
FEET_MALE
  5
B58E7
 10
24.769912
 20
-4.425817
 30
0.0
 11
24.769912
 21
-5.670817
 31
0.0
  0
LINE
  8
FEET_MALE
  5
B58E8
 10
24.769912
 20
-4.425817
 30
0.0
 11
24.769912
 21
-3.180817
 31
0.0
  0
LINE
  8
LINK
  5
B58E9
 10
24.269912
 20
-3.300817
 30
0.0
 11
24.769912
 21
-3.300817
 31
0.0
  0
LINE
  8
LINK
  5
B58EA
 10
24.269912
 20
-5.550817
 30
0.0
 11
24.769912
 21
-5.550817
 31
0.0
  0
POLYLINE
  8
CONSTRUCT
  5
B58EC
 66
     1
 10
0.0
 20
0.0
 30
0.0
 70
     1
  0
VERTEX
  8
CONSTRUCT
  5
B58ED
 10
-7.071349
 20
-9.899893
 30
0.0
  0
VERTEX
  8
CONSTRUCT
  5
B58EE
 10
-7.071349
 20
24.100107
 30
0.0
  0
VERTEX
  8
CONSTRUCT
  5
B58EF
 10
36.928651
 20
24.100107
 30
0.0
  0
VERTEX
  8
CONSTRUCT
  5
B58F0
 10
36.928651
 20
-9.899893
 30
0.0
  0
SEQEND
  8
CONSTRUCT
  5
B58F1
  0
LINE
  8
CENTER
  6
CENTER
  5
B58F2
 10
-1.974161
 20
20.939429
 30
0.0
 11
-1.974161
 21
16.802348
 31
0.0
  0
LINE
  8
CENTER
  6
CENTER
  5
B58F3
 10
0.025839
 20
20.910497
 30
0.0
 11
0.025839
 21
16.802348
 31
0.0
  0
LINE
  8
CENTER
  6
CENTER
  5
B58F4
 10
2.368754
 20
14.76897
 30
0.0
 11
6.51024
 21
14.76897
 31
0.0
  0
ARC
  8
LINK
  5
B58FE
 10
3.431911
 20
-4.425817
 30
0.0
 40
1.125
 50
90.0
 51
270.0
  0
LINE
  8
LINK
  5
B58FF
 10
3.431911
 20
-5.550817
 30
0.0
 11
5.150911
 21
-5.550817
 31
0.0
  0
ARC
  8
LINK
  5
B5900
 10
5.431911
 20
-4.425817
 30
0.0
 40
1.145
 50
103.265056
 51
256.734944
  0
LINE
  8
LINK
  5
B5901
 10
5.150911
 20
-3.300817
 30
0.0
 11
5.169184
 21
-3.311366
 31
0.0
  0
LINE
  8
LINK
  5
B5902
 10
5.150911
 20
-5.550817
 30
0.0
 11
5.169184
 21
-5.540267
 31
0.0
  0
LINE
  8
LINK
  5
B5903
 10
3.431911
 20
-3.300817
 30
0.0
 11
5.150911
 21
-3.300817
 31
0.0
  0
CIRCLE
  8
LINK
  5
B5907
 10
0.025839
 20
14.76897
 30
0.0
 40
0.25
  0
CIRCLE
  8
LINK
  6
HIDDEN
 62
     1
  5
B5908
 10
11.303753
 20
3.772186
 30
0.0
 40
0.25
  0
CIRCLE
  8
LINK
  5
B5909
 10
9.303753
 20
3.772186
 30
0.0
 40
0.25
  0
CIRCLE
  8
LINK
  5
B590A
 10
7.303753
 20
3.772186
 30
0.0
 40
0.25
  0
CIRCLE
  8
LINK
  5
B590B
 10
5.303753
 20
3.772186
 30
0.0
 40
0.25
  0
CIRCLE
  8
LINK
  5
B590C
 10
3.303753
 20
3.772186
 30
0.0
 40
0.25
  0
CIRCLE
  8
LINK
  5
B590D
 10
1.432377
 20
3.066529
 30
0.0
 40
0.25
  0
CIRCLE
  8
LINK
  5
B590E
 10
0.113803
 20
1.562745
 30
0.0
 40
0.25
  0
CIRCLE
  8
LINK
  5
B590F
 10
-0.341247
 20
-0.384799
 30
0.0
 40
0.25
  0
CIRCLE
  8
LINK
  5
B5910
 10
0.174457
 20
-2.317168
 30
0.0
 40
0.25
  0
CIRCLE
  8
LINK
  5
B5911
 10
1.539392
 20
-3.779
 30
0.0
 40
0.25
  0
CIRCLE
  8
LINK
  5
B5912
 10
3.431911
 20
-4.425817
 30
0.0
 40
0.25
  0
CIRCLE
  8
LINK
  5
B5913
 10
5.431911
 20
-4.425817
 30
0.0
 40
0.25
  0
CIRCLE
  8
LINK
  5
B5914
 10
7.431911
 20
-4.425817
 30
0.0
 40
0.25
  0
CIRCLE
  8
LINK
  5
B5915
 10
9.431911
 20
-4.425817
 30
0.0
 40
0.25
  0
CIRCLE
  8
LINK
  5
B5916
 10
11.431911
 20
-4.425817
 30
0.0
 40
0.25
  0
CIRCLE
  8
LINK
  5
B5917
 10
13.431911
 20
-4.425817
 30
0.0
 40
0.25
  0
CIRCLE
  8
LINK
  5
B5918
 10
15.431911
 20
-4.425817
 30
0.0
 40
0.25
  0
CIRCLE
  8
LINK
  5
B5919
 10
22.269912
 20
-4.425817
 30
0.0
 40
0.25
  0
CIRCLE
  8
LINK
  5
B591A
 10
24.269912
 20
-4.425817
 30
0.0
 40
0.25
  0
ARC
  8
LINK
  5
B591B
 10
14.663683
 20
3.772186
 30
0.0
 40
1.145
 50
283.265056
 51
76.734944
  0
LINE
  8
LINK
  5
B591C
 10
17.163683
 20
4.897186
 30
0.0
 11
14.944683
 21
4.897186
 31
0.0
  0
ARC
  8
LINK
  6
HIDDEN
 62
     1
  5
B591D
 10
18.663683
 20
3.772186
 30
0.0
 40
1.125
 50
270.0
 51
90.0
  0
ARC
  8
LINK
  6
HIDDEN
 62
     1
  5
B591E
 10
16.663683
 20
3.772186
 30
0.0
 40
1.145
 50
295.892321
 51
64.107679
  0
ARC
  8
LINK
  6
HIDDEN
 62
     1
  5
B591F
 10
16.663683
 20
3.772186
 30
0.0
 40
1.125
 50
296.3878
 51
63.6122
  0
CIRCLE
  8
LINK
  6
HIDDEN
 62
     1
  5
B5920
 10
18.663683
 20
3.772186
 30
0.0
 40
0.25
  0
LINE
  8
LINK
  5
B5921
 10
17.163683
 20
2.647186
 30
0.0
 11
14.944683
 21
2.647186
 31
0.0
  0
ARC
  8
LINK
  5
B5922
 10
16.663683
 20
3.772186
 30
0.0
 40
1.145
 50
283.265056
 51
295.892321
  0
ARC
  8
LINK
  5
B5923
 10
16.663683
 20
3.772186
 30
0.0
 40
1.125
 50
270.0
 51
296.3878
  0
ARC
  8
LINK
  5
B5924
 10
16.663683
 20
3.772186
 30
0.0
 40
1.145
 50
64.107679
 51
76.734944
  0
ARC
  8
LINK
  5
B5925
 10
16.663683
 20
3.772186
 30
0.0
 40
1.125
 50
63.6122
 51
90.0
  0
CIRCLE
  8
LINK
  5
B5926
 10
16.663683
 20
3.772186
 30
0.0
 40
0.25
  0
LINE
  8
FEET_MALE
  5
B5927
 10
17.163683
 20
3.772186
 30
0.0
 11
17.163683
 21
5.017186
 31
0.0
  0
LINE
  8
FEET_MALE
  6
HIDDEN
 62
     1
  5
B5928
 10
17.163683
 20
4.897186
 30
0.0
 11
20.449683
 21
4.897186
 31
0.0
  0
LINE
  8
FEET_MALE
  5
B5929
 10
17.163683
 20
5.017186
 30
0.0
 11
20.449683
 21
5.017186
 31
0.0
  0
LINE
  8
FEET_MALE
  5
B592A
 10
20.663683
 20
3.772186
 30
0.0
 11
20.663683
 21
4.837186
 31
0.0
  0
LINE
  8
FEET_MALE
  5
B592B
 10
20.543683
 20
2.407186
 30
0.0
 11
20.543683
 21
1.702186
 31
0.0
  0
LINE
  8
FEET_MALE
  5
B592C
 10
20.663683
 20
2.407186
 30
0.0
 11
20.663683
 21
1.702186
 31
0.0
  0
LINE
  8
FEET_MALE
  5
B592D
 10
20.663683
 20
1.702186
 30
0.0
 11
20.543683
 21
1.702186
 31
0.0
  0
LINE
  8
FEET_MALE
  5
B592E
 10
20.663683
 20
3.772186
 30
0.0
 11
20.663683
 21
2.707186
 31
0.0
  0
LINE
  8
FEET_MALE
  5
B592F
 10
20.449683
 20
2.527186
 30
0.0
 11
20.449683
 21
2.707186
 31
0.0
  0
ARC
  8
FEET_MALE
  5
B5930
 10
20.42617
 20
2.410812
 30
0.0
 40
0.237541
 50
359.125349
 51
84.319299
  0
LINE
  8
CENTER
  5
B5931
 10
20.917341
 20
2.082186
 30
0.0
 11
20.420861
 21
2.082186
 31
0.0
  0
ARC
  8
FEET_MALE
  5
B5932
 10
20.424471
 20
2.41062
 30
0.0
 40
0.119262
 50
358.350076
 51
77.795487
  0
LINE
  8
FEET_MALE
  5
B5933
 10
20.663683
 20
2.707186
 30
0.0
 11
20.449683
 21
2.707186
 31
0.0
  0
LINE
  8
FEET_MALE
  5
B5934
 10
20.663683
 20
5.111186
 30
0.0
 11
20.663683
 21
5.842186
 31
0.0
  0
LINE
  8
FEET_MALE
  5
B5935
 10
20.543683
 20
5.111186
 30
0.0
 11
20.543683
 21
5.842186
 31
0.0
  0
LINE
  8
FEET_MALE
  5
B5936
 10
20.663683
 20
4.837186
 30
0.0
 11
20.449683
 21
4.837186
 31
0.0
  0
ARC
  8
FEET_MALE
  5
B5937
 10
20.449683
 20
5.111186
 30
0.0
 40
0.214
 50
270.0
 51
0.0
  0
LINE
  8
FEET_MALE
  5
B5938
 10
20.449683
 20
5.017186
 30
0.0
 11
20.449683
 21
4.837186
 31
0.0
  0
ARC
  8
FEET_MALE
  5
B5939
 10
20.449683
 20
5.111186
 30
0.0
 40
0.094
 50
270.0
 51
0.0
  0
LINE
  8
FEET_MALE
  5
B593A
 10
20.663683
 20
5.842186
 30
0.0
 11
20.543683
 21
5.842186
 31
0.0
  0
LINE
  8
CENTER
  5
B593B
 10
20.917341
 20
5.462186
 30
0.0
 11
20.420861
 21
5.462186
 31
0.0
  0
LINE
  8
FEET_MALE
  5
B593C
 10
17.163683
 20
3.772186
 30
0.0
 11
20.663683
 21
3.772186
 31
0.0
  0
LINE
  8
FEET_MALE
  6
HIDDEN
 62
     1
  5
B593D
 10
17.163683
 20
2.647186
 30
0.0
 11
20.449683
 21
2.647186
 31
0.0
  0
LINE
  8
FEET_MALE
  5
B593E
 10
17.163683
 20
2.527186
 30
0.0
 11
20.449683
 21
2.527186
 31
0.0
  0
LINE
  8
FEET_MALE
  5
B593F
 10
17.163683
 20
3.772186
 30
0.0
 11
17.163683
 21
2.527186
 31
0.0
  0
ENDSEC
  0
EOF
