  0
SECTION
  2
HEADER
  9
$ACADVER
  1
AC1015
  9
$ACADMAINTVER
 70
    20
  9
$DWGCODEPAGE
  3
ANSI_1252
  9
$INSBASE
 10
0.0
 20
0.0
 30
0.0
  9
$EXTMIN
 10
-0.0046689757091656
 20
-0.0030211019294342
 30
-0.0000000349181948
  9
$EXTMAX
 10
76.50466968819268
 20
49.50302156294823
 30
0.0000000814935746
  9
$LIMMIN
 10
0.0
 20
0.0
  9
$LIMMAX
 10
12.0
 20
9.0
  9
$ORTHOMODE
 70
     0
  9
$REGENMODE
 70
     1
  9
$FILLMODE
 70
     1
  9
$QTEXTMODE
 70
     0
  9
$MIRRTEXT
 70
     0
  9
$LTSCALE
 40
1.0
  9
$ATTMODE
 70
     1
  9
$TEXTSIZE
 40
0.125
  9
$TRACEWID
 40
0.05
  9
$TEXTSTYLE
  7
Standard
  9
$CLAYER
  8
title
  9
$CELTYPE
  6
ByLayer
  9
$CECOLOR
 62
   256
  9
$CELTSCALE
 40
1.0
  9
$DISPSILH
 70
     0
  9
$DIMSCALE
 40
4.5
  9
$DIMASZ
 40
0.125
  9
$DIMEXO
 40
0.0625
  9
$DIMDLI
 40
0.38
  9
$DIMRND
 40
0.0
  9
$DIMDLE
 40
0.0
  9
$DIMEXE
 40
0.125
  9
$DIMTP
 40
0.0
  9
$DIMTM
 40
0.0
  9
$DIMTXT
 40
0.125
  9
$DIMCEN
 40
-0.09
  9
$DIMTSZ
 40
0.0
  9
$DIMTOL
 70
     0
  9
$DIMLIM
 70
     0
  9
$DIMTIH
 70
     1
  9
$DIMTOH
 70
     1
  9
$DIMSE1
 70
     0
  9
$DIMSE2
 70
     0
  9
$DIMTAD
 70
     0
  9
$DIMZIN
 70
     0
  9
$DIMBLK
  1

  9
$DIMASO
 70
     0
  9
$DIMSHO
 70
     1
  9
$DIMPOST
  1

  9
$DIMAPOST
  1

  9
$DIMALT
 70
     0
  9
$DIMALTD
 70
     2
  9
$DIMALTF
 40
25.4
  9
$DIMLFAC
 40
1.0
  9
$DIMTOFL
 70
     0
  9
$DIMTVP
 40
0.0
  9
$DIMTIX
 70
     0
  9
$DIMSOXD
 70
     0
  9
$DIMSAH
 70
     0
  9
$DIMBLK1
  1

  9
$DIMBLK2
  1

  9
$DIMSTYLE
  2
Standard
  9
$DIMCLRD
 70
     0
  9
$DIMCLRE
 70
     0
  9
$DIMCLRT
 70
     0
  9
$DIMTFAC
 40
1.0
  9
$DIMGAP
 40
0.09
  9
$DIMJUST
 70
     0
  9
$DIMSD1
 70
     0
  9
$DIMSD2
 70
     0
  9
$DIMTOLJ
 70
     1
  9
$DIMTZIN
 70
     0
  9
$DIMALTZ
 70
     0
  9
$DIMALTTZ
 70
     0
  9
$DIMUPT
 70
     0
  9
$DIMDEC
 70
     3
  9
$DIMTDEC
 70
     4
  9
$DIMALTU
 70
     2
  9
$DIMALTTD
 70
     2
  9
$DIMTXSTY
  7
Standard
  9
$DIMAUNIT
 70
     0
  9
$DIMADEC
 70
     0
  9
$DIMALTRND
 40
0.0
  9
$DIMAZIN
 70
     0
  9
$DIMDSEP
 70
    46
  9
$DIMATFIT
 70
     3
  9
$DIMFRAC
 70
     0
  9
$DIMLDRBLK
  1

  9
$DIMLUNIT
 70
     2
  9
$DIMLWD
 70
    -2
  9
$DIMLWE
 70
    -2
  9
$DIMTMOVE
 70
     0
  9
$LUNITS
 70
     2
  9
$LUPREC
 70
     3
  9
$SKETCHINC
 40
0.1
  9
$FILLETRAD
 40
0.0
  9
$AUNITS
 70
     0
  9
$AUPREC
 70
     0
  9
$MENU
  1
.
  9
$ELEVATION
 40
0.0
  9
$PELEVATION
 40
0.0
  9
$THICKNESS
 40
0.0
  9
$LIMCHECK
 70
     0
  9
$CHAMFERA
 40
0.0
  9
$CHAMFERB
 40
0.0
  9
$CHAMFERC
 40
0.0
  9
$CHAMFERD
 40
0.0
  9
$SKPOLY
 70
     0
  9
$TDCREATE
 40
2454229.692577211
  9
$TDUCREATE
 40
2454229.900910544
  9
$TDUPDATE
 40
2454568.408791424
  9
$TDUUPDATE
 40
2454568.617124757
  9
$TDINDWG
 40
0.0751396065
  9
$TDUSRTIMER
 40
0.0751394329
  9
$USRTIMER
 70
     1
  9
$ANGBASE
 50
0.0
  9
$ANGDIR
 70
     0
  9
$PDMODE
 70
     0
  9
$PDSIZE
 40
0.0
  9
$PLINEWID
 40
0.0
  9
$SPLFRAME
 70
     0
  9
$SPLINETYPE
 70
     6
  9
$SPLINESEGS
 70
     8
  9
$HANDSEED
  5
7E1
  9
$SURFTAB1
 70
     6
  9
$SURFTAB2
 70
     6
  9
$SURFTYPE
 70
     6
  9
$SURFU
 70
     6
  9
$SURFV
 70
     6
  9
$UCSBASE
  2

  9
$UCSNAME
  2

  9
$UCSORG
 10
0.0
 20
0.0
 30
0.0
  9
$UCSXDIR
 10
1.0
 20
0.0
 30
0.0
  9
$UCSYDIR
 10
0.0
 20
1.0
 30
0.0
  9
$UCSORTHOREF
  2

  9
$UCSORTHOVIEW
 70
     0
  9
$UCSORGTOP
 10
0.0
 20
0.0
 30
0.0
  9
$UCSORGBOTTOM
 10
0.0
 20
0.0
 30
0.0
  9
$UCSORGLEFT
 10
0.0
 20
0.0
 30
0.0
  9
$UCSORGRIGHT
 10
0.0
 20
0.0
 30
0.0
  9
$UCSORGFRONT
 10
0.0
 20
0.0
 30
0.0
  9
$UCSORGBACK
 10
0.0
 20
0.0
 30
0.0
  9
$PUCSBASE
  2

  9
$PUCSNAME
  2

  9
$PUCSORG
 10
0.0
 20
0.0
 30
0.0
  9
$PUCSXDIR
 10
1.0
 20
0.0
 30
0.0
  9
$PUCSYDIR
 10
0.0
 20
1.0
 30
0.0
  9
$PUCSORTHOREF
  2

  9
$PUCSORTHOVIEW
 70
     0
  9
$PUCSORGTOP
 10
0.0
 20
0.0
 30
0.0
  9
$PUCSORGBOTTOM
 10
0.0
 20
0.0
 30
0.0
  9
$PUCSORGLEFT
 10
0.0
 20
0.0
 30
0.0
  9
$PUCSORGRIGHT
 10
0.0
 20
0.0
 30
0.0
  9
$PUCSORGFRONT
 10
0.0
 20
0.0
 30
0.0
  9
$PUCSORGBACK
 10
0.0
 20
0.0
 30
0.0
  9
$USERI1
 70
     0
  9
$USERI2
 70
     0
  9
$USERI3
 70
     0
  9
$USERI4
 70
     0
  9
$USERI5
 70
     0
  9
$USERR1
 40
0.0
  9
$USERR2
 40
0.0
  9
$USERR3
 40
0.0
  9
$USERR4
 40
0.0
  9
$USERR5
 40
0.0
  9
$WORLDVIEW
 70
     1
  9
$SHADEDGE
 70
     3
  9
$SHADEDIF
 70
    70
  9
$TILEMODE
 70
     1
  9
$MAXACTVP
 70
    64
  9
$PINSBASE
 10
0.0
 20
0.0
 30
0.0
  9
$PLIMCHECK
 70
     0
  9
$PEXTMIN
 10
0.0
 20
0.0
 30
0.0
  9
$PEXTMAX
 10
0.0
 20
0.0
 30
0.0
  9
$PLIMMIN
 10
0.0
 20
0.0
  9
$PLIMMAX
 10
12.0
 20
9.0
  9
$UNITMODE
 70
     0
  9
$VISRETAIN
 70
     1
  9
$PLINEGEN
 70
     0
  9
$PSLTSCALE
 70
     1
  9
$TREEDEPTH
 70
  3020
  9
$CMLSTYLE
  2
Standard
  9
$CMLJUST
 70
     0
  9
$CMLSCALE
 40
1.0
  9
$PROXYGRAPHICS
 70
     1
  9
$MEASUREMENT
 70
     0
  9
$CELWEIGHT
370
    -1
  9
$ENDCAPS
280
     0
  9
$JOINSTYLE
280
     0
  9
$LWDISPLAY
290
     0
  9
$INSUNITS
 70
     1
  9
$HYPERLINKBASE
  1

  9
$STYLESHEET
  1

  9
$XEDIT
290
     1
  9
$CEPSNTYPE
380
     0
  9
$PSTYLEMODE
290
     1
  9
$FINGERPRINTGUID
  2
{6FF9308A-9AC9-4D77-B563-62C065F374CE}
  9
$VERSIONGUID
  2
{5DC8A3C0-5D07-4139-86F2-D59812B073CF}
  9
$EXTNAMES
290
     1
  9
$PSVPSCALE
 40
0.0
  9
$OLESTARTUP
290
     0
  0
ENDSEC
  0
SECTION
  2
CLASSES
  0
CLASS
  1
ACDBDICTIONARYWDFLT
  2
AcDbDictionaryWithDefault
  3
ObjectDBX Classes
 90
        0
280
     0
281
     0
  0
CLASS
  1
ACDBPLACEHOLDER
  2
AcDbPlaceHolder
  3
ObjectDBX Classes
 90
        0
280
     0
281
     0
  0
CLASS
  1
LAYOUT
  2
AcDbLayout
  3
ObjectDBX Classes
 90
        0
280
     0
281
     0
  0
CLASS
  1
DICTIONARYVAR
  2
AcDbDictionaryVar
  3
ObjectDBX Classes
 90
        0
280
     0
281
     0
  0
CLASS
  1
TABLESTYLE
  2
AcDbTableStyle
  3
ObjectDBX Classes
 90
     2047
280
     0
281
     0
  0
CLASS
  1
SORTENTSTABLE
  2
AcDbSortentsTable
  3
ObjectDBX Classes
 90
        0
280
     0
281
     0
  0
ENDSEC
  0
SECTION
  2
TABLES
  0
TABLE
  2
VPORT
  5
8
330
0
100
AcDbSymbolTable
 70
     3
  0
VPORT
  5
7D9
330
8
100
AcDbSymbolTableRecord
100
AcDbViewportTableRecord
  2
*Active
 70
     0
 10
0.0
 20
0.0
 11
1.0
 21
1.0
 12
38.25000017811545
 22
24.75000011525117
 13
0.0
 23
0.0
 14
0.5
 24
0.5
 15
0.5
 25
0.5
 16
0.0
 26
0.0
 36
1.0
 17
0.0
 27
0.0
 37
0.0
 40
52.44525420656376
 41
1.466327827191867
 42
50.0
 43
0.0
 44
0.0
 50
0.0
 51
0.0
 71
     0
 72
  1000
 73
     1
 74
     2
 75
     0
 76
     0
 77
     0
 78
     0
281
     0
 65
     1
110
0.0
120
0.0
130
0.0
111
1.0
121
0.0
131
0.0
112
0.0
122
1.0
132
0.0
 79
     0
146
0.0
  0
ENDTAB
  0
TABLE
  2
LTYPE
  5
5
330
0
100
AcDbSymbolTable
 70
     5
  0
LTYPE
  5
14
330
5
100
AcDbSymbolTableRecord
100
AcDbLinetypeTableRecord
  2
ByBlock
 70
     0
  3

 72
    65
 73
     0
 40
0.0
  0
LTYPE
  5
15
330
5
100
AcDbSymbolTableRecord
100
AcDbLinetypeTableRecord
  2
ByLayer
 70
     0
  3

 72
    65
 73
     0
 40
0.0
  0
LTYPE
  5
16
330
5
100
AcDbSymbolTableRecord
100
AcDbLinetypeTableRecord
  2
Continuous
 70
     0
  3
Solid line
 72
    65
 73
     0
 40
0.0
  0
LTYPE
  5
90
330
5
100
AcDbSymbolTableRecord
100
AcDbLinetypeTableRecord
  2
CENTER
 70
     0
  3
Center ____ _ ____ _ ____ _ ____ _ ____ _ ____
 72
    65
 73
     4
 40
2.0
 49
1.25
 74
     0
 49
-0.25
 74
     0
 49
0.25
 74
     0
 49
-0.25
 74
     0
  0
LTYPE
  5
92
330
5
100
AcDbSymbolTableRecord
100
AcDbLinetypeTableRecord
  2
HIDDEN
 70
     0
  3
Hidden __ __ __ __ __ __ __ __ __ __ __ __ __ _
 72
    65
 73
     2
 40
0.375
 49
0.25
 74
     0
 49
-0.125
 74
     0
  0
LTYPE
  5
94
330
5
100
AcDbSymbolTableRecord
100
AcDbLinetypeTableRecord
  2
PHANTOM
 70
     0
  3
Phantom ______  __  __  ______  __  __  ______
 72
    65
 73
     6
 40
2.5
 49
1.25
 74
     0
 49
-0.25
 74
     0
 49
0.25
 74
     0
 49
-0.25
 74
     0
 49
0.25
 74
     0
 49
-0.25
 74
     0
  0
LTYPE
  5
5F8
330
5
100
AcDbSymbolTableRecord
100
AcDbLinetypeTableRecord
  2
DGN Style 4
 70
     0
  3
Dgn Style 4
 72
    65
 73
     4
 40
6.348786476985923
 49
3.172410481941748
 74
     0
 49
-1.586205240970874
 74
     0
 49
0.0039655131024272
 74
     0
 49
-1.586205240970874
 74
     0
  0
ENDTAB
  0
TABLE
  2
LAYER
  5
2
330
0
100
AcDbSymbolTable
 70
    23
  0
LAYER
  5
10
330
2
100
AcDbSymbolTableRecord
100
AcDbLayerTableRecord
  2
0
 70
     0
 62
     7
  6
Continuous
370
    -3
390
F
  0
LAYER
  5
8B
330
2
100
AcDbSymbolTableRecord
100
AcDbLayerTableRecord
  2
title
 70
     0
 62
     7
  6
Continuous
370
    -3
390
F
  0
LAYER
  5
8C
330
2
100
AcDbSymbolTableRecord
100
AcDbLayerTableRecord
  2
notes
 70
     0
 62
     7
  6
Continuous
370
    -3
390
F
  0
LAYER
  5
8D
330
2
100
AcDbSymbolTableRecord
100
AcDbLayerTableRecord
  2
dimensions
 70
     0
 62
     1
  6
Continuous
370
    -3
390
F
  0
LAYER
  5
8E
330
2
100
AcDbSymbolTableRecord
100
AcDbLayerTableRecord
  2
objects
 70
     0
 62
     7
  6
Continuous
370
    -3
390
F
  0
LAYER
  5
8F
330
2
100
AcDbSymbolTableRecord
100
AcDbLayerTableRecord
  2
centerlines
 70
     0
 62
     1
  6
CENTER
370
    -3
390
F
  0
LAYER
  5
91
330
2
100
AcDbSymbolTableRecord
100
AcDbLayerTableRecord
  2
hidden
 70
     0
 62
     3
  6
HIDDEN
370
    -3
390
F
  0
LAYER
  5
93
330
2
100
AcDbSymbolTableRecord
100
AcDbLayerTableRecord
  2
phantom
 70
     0
 62
     1
  6
PHANTOM
370
    -3
390
F
  0
LAYER
  5
515
330
2
100
AcDbSymbolTableRecord
100
AcDbLayerTableRecord
  2
TB
 70
     0
 62
     7
  6
Continuous
370
    -3
390
F
  0
LAYER
  5
516
330
2
100
AcDbSymbolTableRecord
100
AcDbLayerTableRecord
  2
AND_TITLE_TEXT
 70
     0
 62
    -4
  6
Continuous
370
    -3
390
F
  0
LAYER
  5
517
330
2
100
AcDbSymbolTableRecord
100
AcDbLayerTableRecord
  2
OB_TITLE_TEXT
 70
     0
 62
    -4
  6
Continuous
370
    -3
390
F
  0
LAYER
  5
518
330
2
100
AcDbSymbolTableRecord
100
AcDbLayerTableRecord
  2
CHARD_TITLE_TEXT
 70
     0
 62
    -4
  6
Continuous
370
    -3
390
F
  0
LAYER
  5
519
330
2
100
AcDbSymbolTableRecord
100
AcDbLayerTableRecord
  2
FAR_TITLE_TEXT
 70
     0
 62
    -7
  6
Continuous
370
    -3
390
F
  0
LAYER
  5
51A
330
2
100
AcDbSymbolTableRecord
100
AcDbLayerTableRecord
  2
CHANC_TITLE_TEXT
 70
     0
 62
     4
  6
Continuous
370
    -3
390
F
  0
LAYER
  5
51B
330
2
100
AcDbSymbolTableRecord
100
AcDbLayerTableRecord
  2
HUBBELL
 70
     0
 62
     7
  6
Continuous
370
    -3
390
F
  0
LAYER
  5
51C
330
2
100
AcDbSymbolTableRecord
100
AcDbLayerTableRecord
  2
CF
 70
     0
 62
    -7
  6
Continuous
370
    -3
390
F
  0
LAYER
  5
5F9
330
2
100
AcDbSymbolTableRecord
100
AcDbLayerTableRecord
  2
--ANNO-TEXT
 70
     0
 62
     7
  6
Continuous
370
    13
390
F
1001
AcAecLayerStandard
1000

1000
Text
  0
LAYER
  5
5FA
330
2
100
AcDbSymbolTableRecord
100
AcDbLayerTableRecord
  2
--ANNO-LEGN
 70
     0
 62
     4
  6
Continuous
370
    13
390
F
1001
AcAecLayerStandard
1000

1000
Legends and Schedules
  0
LAYER
  5
5FB
330
2
100
AcDbSymbolTableRecord
100
AcDbLayerTableRecord
  2
--ANNO-DIMS
 70
     0
 62
     5
  6
Continuous
370
     0
390
F
1001
AcAecLayerStandard
1000

1000
Dimensions and Leaders
  0
LAYER
  5
5FC
330
2
100
AcDbSymbolTableRecord
100
AcDbLayerTableRecord
  2
--ANNO-TTLB
 70
     0
 62
    51
  6
Continuous
370
     0
390
F
1001
AcAecLayerStandard
1000

1000
Border and Titleblock
  0
LAYER
  5
5FD
330
2
100
AcDbSymbolTableRecord
100
AcDbLayerTableRecord
  2
--ANNO-NOTE
 70
     0
 62
     7
  6
Continuous
370
    13
390
F
1001
AcAecLayerStandard
1000

1000
Notes
  0
LAYER
  5
5FE
330
2
100
AcDbSymbolTableRecord
100
AcDbLayerTableRecord
  2
--ANNO-REVS
 70
     0
 62
     4
  6
Continuous
370
    30
390
F
1001
AcAecLayerStandard
1000

1000
Revisions
  0
LAYER
  5
74A
330
2
100
AcDbSymbolTableRecord
100
AcDbLayerTableRecord
  2
99
 70
     0
 62
     3
  6
Continuous
370
    -3
390
F
  0
ENDTAB
  0
TABLE
  2
STYLE
  5
3
330
0
100
AcDbSymbolTable
 70
     6
  0
STYLE
  5
11
330
3
100
AcDbSymbolTableRecord
100
AcDbTextStyleTableRecord
  2
Standard
 70
     0
 40
0.0
 41
1.0
 50
0.0
 71
     0
 42
0.125
  3
txt
  4

  0
STYLE
  5
51D
330
3
100
AcDbSymbolTableRecord
100
AcDbTextStyleTableRecord
  2
ADESK1
 70
     0
 40
0.0
 41
1.0
 50
0.0
 71
     0
 42
0.4106500343966673
  3
romans
  4

  0
STYLE
  5
51E
330
3
100
AcDbSymbolTableRecord
100
AcDbTextStyleTableRecord
  2
BOLD
 70
     0
 40
0.0
 41
1.0
 50
0.0
 71
     0
 42
0.09375
  3
txt.shx
  4

  0
STYLE
  5
5A2
330
3
100
AcDbSymbolTableRecord
100
AcDbTextStyleTableRecord
  2
MONOTXT
 70
     0
 40
0.0
 41
1.0
 50
0.0
 71
     0
 42
0.125
  3
MONOTXT
  4

  0
STYLE
  5
5FF
330
3
100
AcDbSymbolTableRecord
100
AcDbTextStyleTableRecord
  2
Style-WORKING
 70
     0
 40
0.0
 41
1.0
 50
0.0
 71
     0
 42
0.2
  3
WORKING.shx
  4

  0
ENDTAB
  0
TABLE
  2
VIEW
  5
6
330
0
100
AcDbSymbolTable
 70
     0
  0
ENDTAB
  0
TABLE
  2
UCS
  5
7
330
0
100
AcDbSymbolTable
 70
     0
  0
ENDTAB
  0
TABLE
  2
APPID
  5
9
330
0
100
AcDbSymbolTable
 70
     6
  0
APPID
  5
12
330
9
100
AcDbSymbolTableRecord
100
AcDbRegAppTableRecord
  2
ACAD
 70
     0
  0
APPID
  5
96
330
9
100
AcDbSymbolTableRecord
100
AcDbRegAppTableRecord
  2
AcDbAttr
 70
     0
  0
APPID
  5
51F
330
9
100
AcDbSymbolTableRecord
100
AcDbRegAppTableRecord
  2
CONTENTBLOCKICON
 70
     0
  0
APPID
  5
600
330
9
100
AcDbSymbolTableRecord
100
AcDbRegAppTableRecord
  2
AcAecLayerStandard
 70
     0
  0
APPID
  5
601
330
9
100
AcDbSymbolTableRecord
100
AcDbRegAppTableRecord
  2
ACAD_PSEXT
 70
     0
  0
APPID
  5
76F
330
9
100
AcDbSymbolTableRecord
100
AcDbRegAppTableRecord
  2
ACAD_EXEMPT_FROM_CAD_STANDARDS
 70
     0
  0
ENDTAB
  0
TABLE
  2
DIMSTYLE
  5
A
330
0
100
AcDbSymbolTable
 70
     2
100
AcDbDimStyleTable
 71
     1
340
27
  0
DIMSTYLE
105
27
330
A
100
AcDbSymbolTableRecord
100
AcDbDimStyleTableRecord
  2
Standard
 70
     0
340
11
  0
ENDTAB
  0
TABLE
  2
BLOCK_RECORD
  5
1
330
0
100
AcDbSymbolTable
 70
    11
  0
BLOCK_RECORD
  5
1F
102
{ACAD_XDICTIONARY
360
7A7
102
}
330
1
100
AcDbSymbolTableRecord
100
AcDbBlockTableRecord
  2
*Model_Space
340
22
  0
BLOCK_RECORD
  5
58
330
1
100
AcDbSymbolTableRecord
100
AcDbBlockTableRecord
  2
*Paper_Space
340
59
  0
BLOCK_RECORD
  5
5D
330
1
100
AcDbSymbolTableRecord
100
AcDbBlockTableRecord
  2
*Paper_Space0
340
5E
  0
BLOCK_RECORD
  5
97
330
1
100
AcDbSymbolTableRecord
100
AcDbBlockTableRecord
  2
scale
340
0
102
{BLKREFS
331
9B
102
}
1001
ACAD
1000
DesignCenter Data
1002
{
1070
     1
1070
     1
1002
}
  0
BLOCK_RECORD
  5
A6
330
1
100
AcDbSymbolTableRecord
100
AcDbBlockTableRecord
  2
*X2
340
0
102
{BLKREFS
331
545
102
}
  0
BLOCK_RECORD
  5
510
330
1
100
AcDbSymbolTableRecord
100
AcDbBlockTableRecord
  2
CF
340
0
310
2800000020000000200000000100080000000000000400000000000000000000000000000000000000000000000080000080000000808000800000008000800080800000C0C0C000C0DCC000F0CAA6000020400000206000002080000020A0000020C0000020E00000400000004020000040400000406000004080000040A0
310
000040C0000040E00000600000006020000060400000606000006080000060A0000060C0000060E00000800000008020000080400000806000008080000080A0000080C0000080E00000A0000000A0200000A0400000A0600000A0800000A0A00000A0C00000A0E00000C0000000C0200000C0400000C0600000C0800000C0
310
A00000C0C00000C0E00000E0000000E0200000E0400000E0600000E0800000E0A00000E0C00000E0E00040000000400020004000400040006000400080004000A0004000C0004000E00040200000402020004020400040206000402080004020A0004020C0004020E000404000004040200040404000404060004040800040
310
40A0004040C0004040E00040600000406020004060400040606000406080004060A0004060C0004060E00040800000408020004080400040806000408080004080A0004080C0004080E00040A0000040A0200040A0400040A0600040A0800040A0A00040A0C00040A0E00040C0000040C0200040C0400040C0600040C08000
310
40C0A00040C0C00040C0E00040E0000040E0200040E0400040E0600040E0800040E0A00040E0C00040E0E00080000000800020008000400080006000800080008000A0008000C0008000E00080200000802020008020400080206000802080008020A0008020C0008020E00080400000804020008040400080406000804080
310
008040A0008040C0008040E00080600000806020008060400080606000806080008060A0008060C0008060E00080800000808020008080400080806000808080008080A0008080C0008080E00080A0000080A0200080A0400080A0600080A0800080A0A00080A0C00080A0E00080C0000080C0200080C0400080C0600080C0
310
800080C0A00080C0C00080C0E00080E0000080E0200080E0400080E0600080E0800080E0A00080E0C00080E0E000C0000000C0002000C0004000C0006000C0008000C000A000C000C000C000E000C0200000C0202000C0204000C0206000C0208000C020A000C020C000C020E000C0400000C0402000C0404000C0406000C0
310
408000C040A000C040C000C040E000C0600000C0602000C0604000C0606000C0608000C060A000C060C000C060E000C0800000C0802000C0804000C0806000C0808000C080A000C080C000C080E000C0A00000C0A02000C0A04000C0A06000C0A08000C0A0A000C0A0C000C0A0E000C0C00000C0C02000C0C04000C0C06000
310
C0C08000C0C0A000F0FBFF00A4A0A000808080000000FF0000FF000000FFFF00FF000000FF00FF00FFFF0000FFFFFF0000000000000000000000000000000000000000000000000000000000000000000000000000000000000000000000000000000000000000000000000000000000000000000000000000000000000000
310
00000000000000000000000000000000000000000000000000000000FFFFFFFFFFFFFFFFFFFF000000000000000000000000000000000000000000FF00000000000000000000FF0000000000000000000000000000000000000000FF00000000000000000000FF00000000000000000000000000000000000000FF00000000
310
0000000000000000FF000000000000000000000000000000000000FF000000000000000000000000FF0000000000000000000000000000000000FF0000000000000000000000000000FF00000000000000000000000000000000FF0000000000000000000000000000FF000000000000000000000000000000FF00FFFFFFFF
310
00000000FF000000000000FF00000000000000000000000000FF00FF00000000FFFF0000FF00000000000000FF000000000000000000000000FF00FF0000000000000000FF00000000000000FF0000000000000000000000FF0000FF0000000000000000FF0000000000000000FF00000000000000000000FF0000FF000000
310
0000000000FFFFFFFF0000000000FF000000000000000000FF000000FF0000000000000000FF000000000000000000FF0000000000000000FF000000FF0000000000000000FF000000000000000000FF00000000000000FF00000000FF0000000000FF0000FF00000000000000000000FF00000000000000FF00000000FF00
310
0000FF000000FF000000000000000000FF0000000000000000FF00000000FFFFFFFF00000000FFFFFFFFFFFFFF000000FF000000000000000000FF0000000000000000000000000000000000000000FF0000000000000000000000FF000000000000000000000000000000000000FF00000000000000000000000000FF0000
310
0000000000000000000000000000FF0000000000000000000000000000FF00000000000000000000000000000000FF000000000000000000000000000000FFFFFFFFFFFFFFFFFFFFFFFFFFFFFFFF00000000000000000000000000000000000000000000000000000000000000000000000000000000000000000000000000
310
00000000000000000000000000000000000000000000000000000000000000000000000000000000000000000000000000000000000000000000000000000000000000000000000000000000000000000000000000000000000000000000000000000000000000000000000000000000000000000000000000000000000000
310
0000000000000000000000000000000000000000000000000000000000000000000000000000000000000000000000000000000000000000
102
{BLKREFS
331
57B
102
}
1001
ACAD
1000
DesignCenter Data
1002
{
1070
     1
1070
     1
1002
}
  0
BLOCK_RECORD
  5
520
102
{ACAD_XDICTIONARY
360
57E
102
}
330
1
100
AcDbSymbolTableRecord
100
AcDbBlockTableRecord
  2
titleblk
340
0
102
{BLKREFS
331
582
102
}
1001
ACAD
1000
DesignCenter Data
1002
{
1070
     1
1070
     0
1002
}
  0
BLOCK_RECORD
  5
58D
102
{ACAD_XDICTIONARY
360
59D
102
}
330
1
100
AcDbSymbolTableRecord
100
AcDbBlockTableRecord
  2
tolerance
340
0
1001
ACAD
1000
DesignCenter Data
1002
{
1070
     1
1070
     0
1002
}
  0
BLOCK_RECORD
  5
5A3
330
1
100
AcDbSymbolTableRecord
100
AcDbBlockTableRecord
  2
revblk
340
0
1001
ACAD
1000
DesignCenter Data
1002
{
1070
     1
1070
     0
1002
}
  0
BLOCK_RECORD
  5
5CB
102
{ACAD_XDICTIONARY
360
5E8
102
}
330
1
100
AcDbSymbolTableRecord
100
AcDbBlockTableRecord
  2
dist
340
0
1001
ACAD
1000
DesignCenter Data
1002
{
1070
     1
1070
     0
1002
}
  0
BLOCK_RECORD
  5
5EE
330
1
100
AcDbSymbolTableRecord
100
AcDbBlockTableRecord
  2
TerminatorOpen_0.5
340
0
  0
BLOCK_RECORD
  5
5F4
330
1
100
AcDbSymbolTableRecord
100
AcDbBlockTableRecord
  2
*U9
340
0
102
{BLKREFS
331
720
102
}
  0
ENDTAB
  0
ENDSEC
  0
SECTION
  2
BLOCKS
  0
BLOCK
  5
20
330
1F
100
AcDbEntity
  8
0
100
AcDbBlockBegin
  2
*Model_Space
 70
     0
 10
0.0
 20
0.0
 30
0.0
  3
*Model_Space
  1

  0
ENDBLK
  5
21
330
1F
100
AcDbEntity
  8
0
100
AcDbBlockEnd
  0
BLOCK
  5
5A
330
58
100
AcDbEntity
 67
     1
  8
0
100
AcDbBlockBegin
  2
*Paper_Space
 70
     0
 10
0.0
 20
0.0
 30
0.0
  3
*Paper_Space
  1

  0
ENDBLK
  5
5B
330
58
100
AcDbEntity
 67
     1
  8
0
100
AcDbBlockEnd
  0
BLOCK
  5
5F
330
5D
100
AcDbEntity
 67
     1
  8
0
100
AcDbBlockBegin
  2
*Paper_Space0
 70
     0
 10
0.0
 20
0.0
 30
0.0
  3
*Paper_Space0
  1

  0
ENDBLK
  5
60
330
5D
100
AcDbEntity
 67
     1
  8
0
100
AcDbBlockEnd
  0
BLOCK
  5
98
330
97
100
AcDbEntity
  8
0
100
AcDbBlockBegin
  2
scale
 70
     2
 10
0.0
 20
0.0
 30
0.0
  3
scale
  1

  0
ATTDEF
  5
99
330
97
100
AcDbEntity
  8
title
100
AcDbText
 10
0.0
 20
0.0
 30
0.0
 40
0.05
  1
1:1
100
AcDbAttributeDefinition
  3
scale
  2
SCL
 70
     0
1001
AcDbAttr
1070
     0
1070
     1
  0
ENDBLK
  5
9A
330
97
100
AcDbEntity
  8
0
100
AcDbBlockEnd
  0
BLOCK
  5
A7
330
A6
100
AcDbEntity
  8
0
100
AcDbBlockBegin
  2
*X2
 70
     1
 10
0.0
 20
0.0
 30
0.0
  3
*X2
  1

  0
LINE
  5
A8
330
A6
100
AcDbEntity
  8
0
 62
     0
100
AcDbLine
 10
2.914341459420356
 20
7.284261367153219
 30
0.0
 11
2.970291269107701
 21
7.340211176840564
 31
0.0
  0
LINE
  5
A9
330
A6
100
AcDbEntity
  8
0
 62
     0
100
AcDbLine
 10
3.246279199082078
 20
7.616199106814941
 30
0.0
 11
3.306622485602346
 21
7.67654239333521
 31
0.0
  0
LINE
  5
AA
330
A6
100
AcDbEntity
  8
0
 62
     0
100
AcDbLine
 10
2.893128255984759
 20
7.284261367153219
 30
0.0
 11
2.951462071129267
 21
7.342595182297727
 31
0.0
  0
LINE
  5
AB
330
A6
100
AcDbEntity
  8
0
 62
     0
100
AcDbLine
 10
3.227680655891503
 20
7.618813767059963
 30
0.0
 11
3.285409282166749
 21
7.67654239333521
 31
0.0
  0
LINE
  5
AC
330
A6
100
AcDbEntity
  8
0
 62
     0
100
AcDbLine
 10
2.871915052549162
 20
7.284261367153219
 30
0.0
 11
2.932935668547739
 21
7.345281983151796
 31
0.0
  0
LINE
  5
AD
330
A6
100
AcDbEntity
  8
0
 62
     0
100
AcDbLine
 10
3.208776257961579
 20
7.621122572565636
 30
0.0
 11
3.264196078731153
 21
7.67654239333521
 31
0.0
  0
LINE
  5
AE
330
A6
100
AcDbEntity
  8
0
 62
     0
100
AcDbLine
 10
2.850701849113566
 20
7.284261367153219
 30
0.0
 11
2.914791893597815
 21
7.348351411637468
 31
0.0
  0
LINE
  5
AF
330
A6
100
AcDbEntity
  8
0
 62
     0
100
AcDbLine
 10
3.189552598109233
 20
7.623112116148885
 30
0.0
 11
3.242982875295557
 21
7.67654239333521
 31
0.0
  0
LINE
  5
B0
330
A6
100
AcDbEntity
  8
0
 62
     0
100
AcDbLine
 10
2.82948864567797
 20
7.284261367153219
 30
0.0
 11
2.897128125081345
 21
7.351900846556595
 31
0.0
  0
LINE
  5
B1
330
A6
100
AcDbEntity
  8
0
 62
     0
100
AcDbLine
 10
3.169994910258607
 20
7.624767631733857
 30
0.0
 11
3.22176967185996
 21
7.67654239333521
 31
0.0
  0
LINE
  5
B2
330
A6
100
AcDbEntity
  8
0
 62
     0
100
AcDbLine
 10
2.808275442242373
 20
7.284261367153219
 30
0.0
 11
2.879916581632521
 21
7.355902506543366
 31
0.0
  0
LINE
  5
B3
330
A6
100
AcDbEntity
  8
0
 62
     0
100
AcDbLine
 10
3.150086874979828
 20
7.626072799890674
 30
0.0
 11
3.200556468424364
 21
7.67654239333521
 31
0.0
  0
LINE
  5
B4
330
A6
100
AcDbEntity
  8
0
 62
     0
100
AcDbLine
 10
2.787062238806777
 20
7.284261367153219
 30
0.0
 11
2.863132702384597
 21
7.360331830731039
 31
0.0
  0
LINE
  5
B5
330
A6
100
AcDbEntity
  8
0
 62
     0
100
AcDbLine
 10
3.129810387080313
 20
7.627009515426756
 30
0.0
 11
3.179343264988767
 21
7.67654239333521
 31
0.0
  0
LINE
  5
B6
330
A6
100
AcDbEntity
  8
0
 62
     0
100
AcDbLine
 10
2.765849035371181
 20
7.284261367153219
 30
0.0
 11
2.846755102678022
 21
7.36516743446006
 31
0.0
  0
LINE
  5
B7
330
A6
100
AcDbEntity
  8
0
 62
     0
100
AcDbLine
 10
3.109145275773278
 20
7.627557607555316
 30
0.0
 11
3.158130061553171
 21
7.67654239333521
 31
0.0
  0
LINE
  5
B8
330
A6
100
AcDbEntity
  8
0
 62
     0
100
AcDbLine
 10
2.744635831935584
 20
7.284261367153219
 30
0.0
 11
2.830765075106989
 21
7.370390610324625
 31
0.0
  0
LINE
  5
B9
330
A6
100
AcDbEntity
  8
0
 62
     0
100
AcDbLine
 10
3.088068965011403
 20
7.627694500229039
 30
0.0
 11
3.136916858117575
 21
7.67654239333521
 31
0.0
  0
LINE
  5
BA
330
A6
100
AcDbEntity
  8
0
 62
     0
100
AcDbLine
 10
2.723422628499987
 20
7.284261367153219
 30
0.0
 11
2.815146191225413
 21
7.375984929878645
 31
0.0
  0
LINE
  5
BB
330
A6
100
AcDbEntity
  8
0
 62
     0
100
AcDbLine
 10
3.066556057532654
 20
7.627394796185886
 30
0.0
 11
3.115703654681978
 21
7.67654239333521
 31
0.0
  0
LINE
  5
BC
330
A6
100
AcDbEntity
  8
0
 62
     0
100
AcDbLine
 10
2.702209425064391
 20
7.284261367153219
 30
0.0
 11
2.800042631372284
 21
7.382094573461111
 31
0.0
  0
LINE
  5
BD
330
A6
100
AcDbEntity
  8
0
 62
     0
100
AcDbLine
 10
3.044577820523803
 20
7.626629762612632
 30
0.0
 11
3.094490451246382
 21
7.67654239333521
 31
0.0
  0
LINE
  5
BE
330
A6
100
AcDbEntity
  8
0
 62
     0
100
AcDbLine
 10
2.683816036277276
 20
7.287081181801701
 30
0.0
 11
2.78560927926192
 21
7.388874424786345
 31
0.0
  0
LINE
  5
BF
330
A6
100
AcDbEntity
  8
0
 62
     0
100
AcDbLine
 10
3.02210154280603
 20
7.625366688330455
 30
0.0
 11
3.073277247810785
 21
7.67654239333521
 31
0.0
  0
LINE
  5
C0
330
A6
100
AcDbEntity
  8
0
 62
     0
100
AcDbLine
 10
2.670048909775193
 20
7.294527258735214
 30
0.0
 11
2.771808156663216
 21
7.396286505623237
 31
0.0
  0
LINE
  5
C1
330
A6
100
AcDbEntity
  8
0
 62
     0
100
AcDbLine
 10
2.999089721900008
 20
7.623568070860029
 30
0.0
 11
3.052064044375189
 21
7.67654239333521
 31
0.0
  0
LINE
  5
C2
330
A6
100
AcDbEntity
  8
0
 62
     0
100
AcDbLine
 10
2.659646863083937
 20
7.305338415479554
 30
0.0
 11
2.758609469842813
 21
7.404301022238431
 31
0.0
  0
LINE
  5
C3
330
A6
100
AcDbEntity
  8
0
 62
     0
100
AcDbLine
 10
2.975499022339692
 20
7.62119057473531
 30
0.0
 11
3.030850840939592
 21
7.67654239333521
 31
0.0
  0
LINE
  5
C4
330
A6
100
AcDbEntity
  8
0
 62
     0
100
AcDbLine
 10
2.652676264693353
 20
7.319581020524566
 30
0.0
 11
2.745990409052032
 21
7.412895164883246
 31
0.0
  0
LINE
  5
C5
330
A6
100
AcDbEntity
  8
0
 62
     0
100
AcDbLine
 10
2.9512789210704
 20
7.618183676901614
 30
0.0
 11
3.009637637503996
 21
7.67654239333521
 31
0.0
  0
LINE
  5
C6
330
A6
100
AcDbEntity
  8
0
 62
     0
100
AcDbLine
 10
2.650519457961591
 20
7.338637417228401
 30
0.0
 11
2.733934055302302
 21
7.422052014569112
 31
0.0
  0
LINE
  5
C7
330
A6
100
AcDbEntity
  8
0
 62
     0
100
AcDbLine
 10
2.926357520780801
 20
7.614475480047611
 30
0.0
 11
2.9884244340684
 21
7.67654239333521
 31
0.0
  0
LINE
  5
C8
330
A6
100
AcDbEntity
  8
0
 62
     0
100
AcDbLine
 10
2.650519457961591
 20
7.359850620663998
 30
0.0
 11
2.722428627463157
 21
7.431759790165564
 31
0.0
  0
LINE
  5
C9
330
A6
100
AcDbEntity
  8
0
 62
     0
100
AcDbLine
 10
2.900237118339147
 20
7.609568281041554
 30
0.0
 11
2.967211230632803
 21
7.67654239333521
 31
0.0
  0
LINE
  5
CA
330
A6
100
AcDbEntity
  8
0
 62
     0
100
AcDbLine
 10
2.650519457961591
 20
7.381063824099594
 30
0.0
 11
2.712111838211745
 21
7.442656204349748
 31
0.0
  0
LINE
  5
CB
330
A6
100
AcDbEntity
  8
0
 62
     0
100
AcDbLine
 10
2.87245189031247
 20
7.602996256450473
 30
0.0
 11
2.945998027197207
 21
7.67654239333521
 31
0.0
  0
LINE
  5
CC
330
A6
100
AcDbEntity
  8
0
 62
     0
100
AcDbLine
 10
2.650519457961591
 20
7.40227702753519
 30
0.0
 11
2.704404020923932
 21
7.456161590497531
 31
0.0
  0
LINE
  5
CD
330
A6
100
AcDbEntity
  8
0
 62
     0
100
AcDbLine
 10
2.842555533653515
 20
7.594313103227115
 30
0.0
 11
2.92478482376161
 21
7.67654239333521
 31
0.0
  0
LINE
  5
CE
330
A6
100
AcDbEntity
  8
0
 62
     0
100
AcDbLine
 10
2.650519457961591
 20
7.423490230970787
 30
0.0
 11
2.699994930467823
 21
7.472965703477019
 31
0.0
  0
LINE
  5
CF
330
A6
100
AcDbEntity
  8
0
 62
     0
100
AcDbLine
 10
2.809793400144222
 20
7.582764173153418
 30
0.0
 11
2.903571620326014
 21
7.67654239333521
 31
0.0
  0
LINE
  5
D0
330
A6
100
AcDbEntity
  8
0
 62
     0
100
AcDbLine
 10
2.650519457961591
 20
7.444703434406384
 30
0.0
 11
2.701414674524244
 21
7.495598650969037
 31
0.0
  0
LINE
  5
D1
330
A6
100
AcDbEntity
  8
0
 62
     0
100
AcDbLine
 10
2.768287473022976
 20
7.562471449467769
 30
0.0
 11
2.882358416890417
 21
7.67654239333521
 31
0.0
  0
LINE
  5
D2
330
A6
100
AcDbEntity
  8
0
 62
     0
100
AcDbLine
 10
2.650519457961591
 20
7.46591663784198
 30
0.0
 11
2.861145213454821
 21
7.67654239333521
 31
0.0
  0
LINE
  5
D3
330
A6
100
AcDbEntity
  8
0
 62
     0
100
AcDbLine
 10
2.650519457961591
 20
7.487129841277576
 30
0.0
 11
2.839932010019225
 21
7.67654239333521
 31
0.0
  0
LINE
  5
D4
330
A6
100
AcDbEntity
  8
0
 62
     0
100
AcDbLine
 10
2.650519457961591
 20
7.508343044713173
 30
0.0
 11
2.818718806583628
 21
7.67654239333521
 31
0.0
  0
LINE
  5
D5
330
A6
100
AcDbEntity
  8
0
 62
     0
100
AcDbLine
 10
2.650519457961591
 20
7.529556248148769
 30
0.0
 11
2.797505603148032
 21
7.67654239333521
 31
0.0
  0
LINE
  5
D6
330
A6
100
AcDbEntity
  8
0
 62
     0
100
AcDbLine
 10
2.650519457961591
 20
7.550769451584365
 30
0.0
 11
2.776292399712435
 21
7.67654239333521
 31
0.0
  0
LINE
  5
D7
330
A6
100
AcDbEntity
  8
0
 62
     0
100
AcDbLine
 10
2.650519457961591
 20
7.571982655019962
 30
0.0
 11
2.755079196276839
 21
7.67654239333521
 31
0.0
  0
LINE
  5
D8
330
A6
100
AcDbEntity
  8
0
 62
     0
100
AcDbLine
 10
2.650519457961591
 20
7.593195858455558
 30
0.0
 11
2.733865992841242
 21
7.67654239333521
 31
0.0
  0
LINE
  5
D9
330
A6
100
AcDbEntity
  8
0
 62
     0
100
AcDbLine
 10
2.650519457961591
 20
7.614409061891154
 30
0.0
 11
2.712652789405646
 21
7.67654239333521
 31
0.0
  0
LINE
  5
DA
330
A6
100
AcDbEntity
  8
0
 62
     0
100
AcDbLine
 10
2.651511262815456
 20
7.636614070180616
 30
0.0
 11
2.690447781116184
 21
7.675550588481344
 31
0.0
  0
LINE
  5
DB
330
A6
100
AcDbEntity
  8
0
 62
     0
100
AcDbLine
 10
2.935554662855952
 20
7.284261367153219
 30
0.0
 11
2.989436366460584
 21
7.338143070757852
 31
0.0
  0
LINE
  5
DC
330
A6
100
AcDbEntity
  8
0
 62
     0
100
AcDbLine
 10
3.264533565512968
 20
7.613240269810235
 30
0.0
 11
3.327835689037943
 21
7.67654239333521
 31
0.0
  0
LINE
  5
DD
330
A6
100
AcDbEntity
  8
0
 62
     0
100
AcDbLine
 10
2.956767866291548
 20
7.284261367153219
 30
0.0
 11
3.008911783841679
 21
7.336405284703349
 31
0.0
  0
LINE
  5
DE
330
A6
100
AcDbEntity
  8
0
 62
     0
100
AcDbLine
 10
3.282310877612149
 20
7.609804378473819
 30
0.0
 11
3.349048892473539
 21
7.67654239333521
 31
0.0
  0
LINE
  5
DF
330
A6
100
AcDbEntity
  8
0
 62
     0
100
AcDbLine
 10
2.977981069727145
 20
7.284261367153219
 30
0.0
 11
3.028733445026805
 21
7.33501374245288
 31
0.0
  0
LINE
  5
E0
330
A6
100
AcDbEntity
  8
0
 62
     0
100
AcDbLine
 10
3.299629475871589
 20
7.605909773297663
 30
0.0
 11
3.370262095909135
 21
7.67654239333521
 31
0.0
  0
LINE
  5
E1
330
A6
100
AcDbEntity
  8
0
 62
     0
100
AcDbLine
 10
2.999194273162741
 20
7.284261367153219
 30
0.0
 11
3.048918999363099
 21
7.333986093353577
 31
0.0
  0
LINE
  5
E2
330
A6
100
AcDbEntity
  8
0
 62
     0
100
AcDbLine
 10
3.316514778905668
 20
7.601581872896146
 30
0.0
 11
3.391475299344732
 21
7.67654239333521
 31
0.0
  0
LINE
  5
E3
330
A6
100
AcDbEntity
  8
0
 62
     0
100
AcDbLine
 10
3.020407476598337
 20
7.284261367153219
 30
0.0
 11
3.06948808911257
 21
7.333341979667452
 31
0.0
  0
LINE
  5
E4
330
A6
100
AcDbEntity
  8
0
 62
     0
100
AcDbLine
 10
3.332988889833258
 20
7.59684278038814
 30
0.0
 11
3.412688502780328
 21
7.67654239333521
 31
0.0
  0
LINE
  5
E5
330
A6
100
AcDbEntity
  8
0
 62
     0
100
AcDbLine
 10
3.041620680033934
 20
7.284261367153219
 30
0.0
 11
3.090462673304806
 21
7.333103360424091
 31
0.0
  0
LINE
  5
E6
330
A6
100
AcDbEntity
  8
0
 62
     0
100
AcDbLine
 10
3.349071124062172
 20
7.591711811181457
 30
0.0
 11
3.433901706215924
 21
7.67654239333521
 31
0.0
  0
LINE
  5
E7
330
A6
100
AcDbEntity
  8
0
 62
     0
100
AcDbLine
 10
3.062833883469531
 20
7.284261367153219
 30
0.0
 11
3.111867423449467
 21
7.333294907133156
 31
0.0
  0
LINE
  5
E8
330
A6
100
AcDbEntity
  8
0
 62
     0
100
AcDbLine
 10
3.364778429499487
 20
7.586205913183176
 30
0.0
 11
3.455114909651521
 21
7.67654239333521
 31
0.0
  0
LINE
  5
E9
330
A6
100
AcDbEntity
  8
0
 62
     0
100
AcDbLine
 10
3.084047086905127
 20
7.284261367153219
 30
0.0
 11
3.133730211655722
 21
7.333944491903815
 31
0.0
  0
LINE
  5
EA
330
A6
100
AcDbEntity
  8
0
 62
     0
100
AcDbLine
 10
3.380036548315438
 20
7.580250828563531
 30
0.0
 11
3.476328113087117
 21
7.67654239333521
 31
0.0
  0
LINE
  5
EB
330
A6
100
AcDbEntity
  8
0
 62
     0
100
AcDbLine
 10
3.105260290340723
 20
7.284261367153219
 30
0.0
 11
3.15608271904695
 21
7.335083795859445
 31
0.0
  0
LINE
  5
EC
330
A6
100
AcDbEntity
  8
0
 62
     0
100
AcDbLine
 10
3.394628298902765
 20
7.573629375715261
 30
0.0
 11
3.495923803991136
 21
7.674924880803632
 31
0.0
  0
LINE
  5
ED
330
A6
100
AcDbEntity
  8
0
 62
     0
100
AcDbLine
 10
3.12647349377632
 20
7.284261367153219
 30
0.0
 11
3.178961202907225
 21
7.336749076284124
 31
0.0
  0
LINE
  5
EE
330
A6
100
AcDbEntity
  8
0
 62
     0
100
AcDbLine
 10
3.408579396820423
 20
7.566367270197322
 30
0.0
 11
3.510617950945574
 21
7.668405824322474
 31
0.0
  0
LINE
  5
EF
330
A6
100
AcDbEntity
  8
0
 62
     0
100
AcDbLine
 10
3.147686697211916
 20
7.284261367153219
 30
0.0
 11
3.202407476439879
 21
7.338982146381182
 31
0.0
  0
LINE
  5
F0
330
A6
100
AcDbEntity
  8
0
 62
     0
100
AcDbLine
 10
3.42192153964097
 20
7.558496209582273
 30
0.0
 11
3.521802662471619
 21
7.658377332412922
 31
0.0
  0
LINE
  5
F1
330
A6
100
AcDbEntity
  8
0
 62
     0
100
AcDbLine
 10
3.168899900647513
 20
7.284261367153219
 30
0.0
 11
3.226470178105981
 21
7.341831644611688
 31
0.0
  0
LINE
  5
F2
330
A6
100
AcDbEntity
  8
0
 62
     0
100
AcDbLine
 10
3.434679111714892
 20
7.550040578220599
 30
0.0
 11
3.529666809991001
 21
7.645028276496707
 31
0.0
  0
LINE
  5
F3
330
A6
100
AcDbEntity
  8
0
 62
     0
100
AcDbLine
 10
3.190113104083109
 20
7.284261367153219
 30
0.0
 11
3.251206442838692
 21
7.345354705908802
 31
0.0
  0
LINE
  5
F4
330
A6
100
AcDbEntity
  8
0
 62
     0
100
AcDbLine
 10
3.446870377325916
 20
7.541018640396027
 30
0.0
 11
3.53314845984745
 21
7.627296722917561
 31
0.0
  0
LINE
  5
F5
330
A6
100
AcDbEntity
  8
0
 62
     0
100
AcDbLine
 10
3.211326307518706
 20
7.284261367153219
 30
0.0
 11
3.27697341796238
 21
7.349908477596893
 31
0.0
  0
LINE
  5
F6
330
A6
100
AcDbEntity
  8
0
 62
     0
100
AcDbLine
 10
3.458508306803969
 20
7.531443366438483
 30
0.0
 11
3.533151766871068
 21
7.606086826505581
 31
0.0
  0
LINE
  5
F7
330
A6
100
AcDbEntity
  8
0
 62
     0
100
AcDbLine
 10
3.232539510954302
 20
7.284261367153219
 30
0.0
 11
3.304321750868988
 21
7.356043607067905
 31
0.0
  0
LINE
  5
F8
330
A6
100
AcDbEntity
  8
0
 62
     0
100
AcDbLine
 10
3.469286628879073
 20
7.521008485077991
 30
0.0
 11
3.533151766871068
 21
7.584873623069985
 31
0.0
  0
LINE
  5
F9
330
A6
100
AcDbEntity
  8
0
 62
     0
100
AcDbLine
 10
3.253752714389898
 20
7.284261367153219
 30
0.0
 11
3.333654797612175
 21
7.364163450375497
 31
0.0
  0
LINE
  5
FA
330
A6
100
AcDbEntity
  8
0
 62
     0
100
AcDbLine
 10
3.477665698232927
 20
7.508174350996248
 30
0.0
 11
3.533151766871068
 21
7.563660419634389
 31
0.0
  0
LINE
  5
FB
330
A6
100
AcDbEntity
  8
0
 62
     0
100
AcDbLine
 10
3.274965917825495
 20
7.284261367153219
 30
0.0
 11
3.365606494935795
 21
7.37490194426352
 31
0.0
  0
LINE
  5
FC
330
A6
100
AcDbEntity
  8
0
 62
     0
100
AcDbLine
 10
3.482986519166656
 20
7.492281968494381
 30
0.0
 11
3.533151766871068
 21
7.542447216198793
 31
0.0
  0
LINE
  5
FD
330
A6
100
AcDbEntity
  8
0
 62
     0
100
AcDbLine
 10
3.296179121261091
 20
7.284261367153219
 30
0.0
 11
3.403712997423099
 21
7.391795243315227
 31
0.0
  0
LINE
  5
FE
330
A6
100
AcDbEntity
  8
0
 62
     0
100
AcDbLine
 10
3.483495710370631
 20
7.471577956262759
 30
0.0
 11
3.533151766871068
 21
7.521234012763196
 31
0.0
  0
LINE
  5
FF
330
A6
100
AcDbEntity
  8
0
 62
     0
100
AcDbLine
 10
3.317392324696688
 20
7.284261367153219
 30
0.0
 11
3.533151766871068
 21
7.500020809327599
 31
0.0
  0
LINE
  5
100
330
A6
100
AcDbEntity
  8
0
 62
     0
100
AcDbLine
 10
3.338605528132284
 20
7.284261367153219
 30
0.0
 11
3.533151766871068
 21
7.478807605892003
 31
0.0
  0
LINE
  5
101
330
A6
100
AcDbEntity
  8
0
 62
     0
100
AcDbLine
 10
3.359818731567881
 20
7.284261367153219
 30
0.0
 11
3.533151766871068
 21
7.457594402456407
 31
0.0
  0
LINE
  5
102
330
A6
100
AcDbEntity
  8
0
 62
     0
100
AcDbLine
 10
3.381031935003477
 20
7.284261367153219
 30
0.0
 11
3.533151766871068
 21
7.43638119902081
 31
0.0
  0
LINE
  5
103
330
A6
100
AcDbEntity
  8
0
 62
     0
100
AcDbLine
 10
3.402245138439073
 20
7.284261367153219
 30
0.0
 11
3.533151766871068
 21
7.415167995585214
 31
0.0
  0
LINE
  5
104
330
A6
100
AcDbEntity
  8
0
 62
     0
100
AcDbLine
 10
3.42345834187467
 20
7.284261367153219
 30
0.0
 11
3.533151766871068
 21
7.393954792149617
 31
0.0
  0
LINE
  5
105
330
A6
100
AcDbEntity
  8
0
 62
     0
100
AcDbLine
 10
3.444671545310266
 20
7.284261367153219
 30
0.0
 11
3.533151766871068
 21
7.372741588714021
 31
0.0
  0
LINE
  5
106
330
A6
100
AcDbEntity
  8
0
 62
     0
100
AcDbLine
 10
3.465884748745863
 20
7.284261367153219
 30
0.0
 11
3.533151766871068
 21
7.351528385278424
 31
0.0
  0
LINE
  5
107
330
A6
100
AcDbEntity
  8
0
 62
     0
100
AcDbLine
 10
3.487252440497728
 20
7.284415855469489
 30
0.0
 11
3.5329972785548
 21
7.330160693526561
 31
0.0
  0
LINE
  5
108
330
A6
100
AcDbEntity
  8
0
 62
     0
100
AcDbLine
 10
2.906208870658911
 20
7.286735380127371
 30
0.0
 11
2.91151217151781
 21
7.29203868098627
 31
0.0
  0
LINE
  5
109
330
A6
100
AcDbEntity
  8
0
 62
     0
100
AcDbLine
 10
2.914163821947259
 20
7.294690331415719
 30
0.0
 11
2.919467122806159
 21
7.299993632274619
 31
0.0
  0
LINE
  5
10A
330
A6
100
AcDbEntity
  8
0
 62
     0
100
AcDbLine
 10
2.922118773235608
 20
7.302645282704068
 30
0.0
 11
2.927422074094507
 21
7.307948583562967
 31
0.0
  0
LINE
  5
10B
330
A6
100
AcDbEntity
  8
0
 62
     0
100
AcDbLine
 10
2.930073724523957
 20
7.310600233992416
 30
0.0
 11
2.935377025382856
 21
7.315903534851315
 31
0.0
  0
LINE
  5
10C
330
A6
100
AcDbEntity
  8
0
 62
     0
100
AcDbLine
 10
2.938028675812306
 20
7.318555185280764
 30
0.0
 11
2.943331976671205
 21
7.323858486139664
 31
0.0
  0
LINE
  5
10D
330
A6
100
AcDbEntity
  8
0
 62
     0
100
AcDbLine
 10
2.945983627100654
 20
7.326510136569113
 30
0.0
 11
2.951286927959554
 21
7.331813437428012
 31
0.0
  0
LINE
  5
10E
330
A6
100
AcDbEntity
  8
0
 62
     0
100
AcDbLine
 10
2.953938578389003
 20
7.334465087857461
 30
0.0
 11
2.959241879247903
 21
7.33976838871636
 31
0.0
  0
LINE
  5
10F
330
A6
100
AcDbEntity
  8
0
 62
     0
100
AcDbLine
 10
3.237017369784257
 20
7.617543879252717
 30
0.0
 11
3.237665174340105
 21
7.618191683808565
 31
0.0
  0
LINE
  5
110
330
A6
100
AcDbEntity
  8
0
 62
     0
100
AcDbLine
 10
3.240316824769554
 20
7.620843334238014
 30
0.0
 11
3.245620125628454
 21
7.626146635096914
 31
0.0
  0
LINE
  5
111
330
A6
100
AcDbEntity
  8
0
 62
     0
100
AcDbLine
 10
3.248271776057903
 20
7.628798285526363
 30
0.0
 11
3.253575076916802
 21
7.634101586385262
 31
0.0
  0
LINE
  5
112
330
A6
100
AcDbEntity
  8
0
 62
     0
100
AcDbLine
 10
3.256226727346252
 20
7.636753236814711
 30
0.0
 11
3.261530028205151
 21
7.64205653767361
 31
0.0
  0
LINE
  5
113
330
A6
100
AcDbEntity
  8
0
 62
     0
100
AcDbLine
 10
3.264181678634601
 20
7.644708188103059
 30
0.0
 11
3.2694849794935
 21
7.650011488961959
 31
0.0
  0
LINE
  5
114
330
A6
100
AcDbEntity
  8
0
 62
     0
100
AcDbLine
 10
3.272136629922949
 20
7.652663139391408
 30
0.0
 11
3.277439930781849
 21
7.657966440250307
 31
0.0
  0
LINE
  5
115
330
A6
100
AcDbEntity
  8
0
 62
     0
100
AcDbLine
 10
3.280091581211298
 20
7.660618090679756
 30
0.0
 11
3.285394882070197
 21
7.665921391538655
 31
0.0
  0
LINE
  5
116
330
A6
100
AcDbEntity
  8
0
 62
     0
100
AcDbLine
 10
3.288046532499647
 20
7.668573041968104
 30
0.0
 11
3.293349833358546
 21
7.673876342827004
 31
0.0
  0
LINE
  5
117
330
A6
100
AcDbEntity
  8
0
 62
     0
100
AcDbLine
 10
3.296001483787996
 20
7.676527993256453
 30
0.0
 11
3.296015883866751
 21
7.676542393335207
 31
0.0
  0
LINE
  5
118
330
A6
100
AcDbEntity
  8
0
 62
     0
100
AcDbLine
 10
2.882521654249162
 20
7.284261367153219
 30
0.0
 11
2.884995667223314
 21
7.286735380127371
 31
0.0
  0
LINE
  5
119
330
A6
100
AcDbEntity
  8
0
 62
     0
100
AcDbLine
 10
2.887647317652764
 20
7.28938703055682
 30
0.0
 11
2.892950618511663
 21
7.294690331415719
 31
0.0
  0
LINE
  5
11A
330
A6
100
AcDbEntity
  8
0
 62
     0
100
AcDbLine
 10
2.895602268941113
 20
7.297341981845169
 30
0.0
 11
2.900905569800012
 21
7.302645282704068
 31
0.0
  0
LINE
  5
11B
330
A6
100
AcDbEntity
  8
0
 62
     0
100
AcDbLine
 10
2.903557220229462
 20
7.305296933133517
 30
0.0
 11
2.908860521088361
 21
7.310600233992416
 31
0.0
  0
LINE
  5
11C
330
A6
100
AcDbEntity
  8
0
 62
     0
100
AcDbLine
 10
2.91151217151781
 20
7.313251884421865
 30
0.0
 11
2.916815472376709
 21
7.318555185280764
 31
0.0
  0
LINE
  5
11D
330
A6
100
AcDbEntity
  8
0
 62
     0
100
AcDbLine
 10
2.919467122806159
 20
7.321206835710214
 30
0.0
 11
2.924770423665058
 21
7.326510136569113
 31
0.0
  0
LINE
  5
11E
330
A6
100
AcDbEntity
  8
0
 62
     0
100
AcDbLine
 10
2.927422074094508
 20
7.329161786998562
 30
0.0
 11
2.932725374953407
 21
7.334465087857461
 31
0.0
  0
LINE
  5
11F
330
A6
100
AcDbEntity
  8
0
 62
     0
100
AcDbLine
 10
2.935377025382857
 20
7.33711673828691
 30
0.0
 11
2.940680326241756
 21
7.342420039145809
 31
0.0
  0
LINE
  5
120
330
A6
100
AcDbEntity
  8
0
 62
     0
100
AcDbLine
 10
3.21826749690702
 20
7.620007209811077
 30
0.0
 11
3.219103621333958
 21
7.620843334238015
 31
0.0
  0
LINE
  5
121
330
A6
100
AcDbEntity
  8
0
 62
     0
100
AcDbLine
 10
3.221755271763408
 20
7.623494984667464
 30
0.0
 11
3.227058572622307
 21
7.628798285526364
 31
0.0
  0
LINE
  5
122
330
A6
100
AcDbEntity
  8
0
 62
     0
100
AcDbLine
 10
3.229710223051757
 20
7.631449935955813
 30
0.0
 11
3.235013523910656
 21
7.636753236814712
 31
0.0
  0
LINE
  5
123
330
A6
100
AcDbEntity
  8
0
 62
     0
100
AcDbLine
 10
3.237665174340106
 20
7.639404887244161
 30
0.0
 11
3.242968475199005
 21
7.64470818810306
 31
0.0
  0
LINE
  5
124
330
A6
100
AcDbEntity
  8
0
 62
     0
100
AcDbLine
 10
3.245620125628454
 20
7.647359838532509
 30
0.0
 11
3.250923426487354
 21
7.652663139391409
 31
0.0
  0
LINE
  5
125
330
A6
100
AcDbEntity
  8
0
 62
     0
100
AcDbLine
 10
3.253575076916803
 20
7.655314789820858
 30
0.0
 11
3.258878377775702
 21
7.660618090679757
 31
0.0
  0
LINE
  5
126
330
A6
100
AcDbEntity
  8
0
 62
     0
100
AcDbLine
 10
3.261530028205152
 20
7.663269741109206
 30
0.0
 11
3.266833329064051
 21
7.668573041968105
 31
0.0
  0
LINE
  5
127
330
A6
100
AcDbEntity
  8
0
 62
     0
100
AcDbLine
 10
3.269484979493501
 20
7.671224692397554
 30
0.0
 11
3.2747882803524
 21
7.676527993256454
 31
0.0
  0
LINE
  5
128
330
A6
100
AcDbEntity
  8
0
 62
     0
100
AcDbLine
 10
2.861308450813567
 20
7.284261367153219
 30
0.0
 11
2.866434114217168
 21
7.28938703055682
 31
0.0
  0
LINE
  5
129
330
A6
100
AcDbEntity
  8
0
 62
     0
100
AcDbLine
 10
2.869085764646618
 20
7.292038680986269
 30
0.0
 11
2.874389065505517
 21
7.297341981845169
 31
0.0
  0
LINE
  5
12A
330
A6
100
AcDbEntity
  8
0
 62
     0
100
AcDbLine
 10
2.877040715934966
 20
7.299993632274618
 30
0.0
 11
2.882344016793866
 21
7.305296933133517
 31
0.0
  0
LINE
  5
12B
330
A6
100
AcDbEntity
  8
0
 62
     0
100
AcDbLine
 10
2.884995667223315
 20
7.307948583562966
 30
0.0
 11
2.890298968082214
 21
7.313251884421865
 31
0.0
  0
LINE
  5
12C
330
A6
100
AcDbEntity
  8
0
 62
     0
100
AcDbLine
 10
2.892950618511664
 20
7.315903534851314
 30
0.0
 11
2.898253919370563
 21
7.321206835710214
 31
0.0
  0
LINE
  5
12D
330
A6
100
AcDbEntity
  8
0
 62
     0
100
AcDbLine
 10
2.900905569800013
 20
7.323858486139663
 30
0.0
 11
2.906208870658912
 21
7.329161786998562
 31
0.0
  0
LINE
  5
12E
330
A6
100
AcDbEntity
  8
0
 62
     0
100
AcDbLine
 10
2.908860521088362
 20
7.331813437428011
 30
0.0
 11
2.914163821947261
 21
7.33711673828691
 31
0.0
  0
LINE
  5
12F
330
A6
100
AcDbEntity
  8
0
 62
     0
100
AcDbLine
 10
2.91681547237671
 20
7.339768388716359
 30
0.0
 11
2.922118773235609
 21
7.345071689575259
 31
0.0
  0
LINE
  5
130
330
A6
100
AcDbEntity
  8
0
 62
     0
100
AcDbLine
 10
3.199205224676894
 20
7.622158141016547
 30
0.0
 11
3.200542068327812
 21
7.623494984667464
 31
0.0
  0
LINE
  5
131
330
A6
100
AcDbEntity
  8
0
 62
     0
100
AcDbLine
 10
3.203193718757261
 20
7.626146635096914
 30
0.0
 11
3.208497019616161
 21
7.631449935955813
 31
0.0
  0
LINE
  5
132
330
A6
100
AcDbEntity
  8
0
 62
     0
100
AcDbLine
 10
3.21114867004561
 20
7.634101586385262
 30
0.0
 11
3.216451970904509
 21
7.639404887244161
 31
0.0
  0
LINE
  5
133
330
A6
100
AcDbEntity
  8
0
 62
     0
100
AcDbLine
 10
3.219103621333959
 20
7.64205653767361
 30
0.0
 11
3.224406922192858
 21
7.647359838532509
 31
0.0
  0
LINE
  5
134
330
A6
100
AcDbEntity
  8
0
 62
     0
100
AcDbLine
 10
3.227058572622308
 20
7.650011488961959
 30
0.0
 11
3.232361873481207
 21
7.655314789820858
 31
0.0
  0
LINE
  5
135
330
A6
100
AcDbEntity
  8
0
 62
     0
100
AcDbLine
 10
3.235013523910656
 20
7.657966440250307
 30
0.0
 11
3.240316824769556
 21
7.663269741109206
 31
0.0
  0
LINE
  5
136
330
A6
100
AcDbEntity
  8
0
 62
     0
100
AcDbLine
 10
3.242968475199005
 20
7.665921391538655
 30
0.0
 11
3.248271776057904
 21
7.671224692397554
 31
0.0
  0
LINE
  5
137
330
A6
100
AcDbEntity
  8
0
 62
     0
100
AcDbLine
 10
3.250923426487354
 20
7.673876342827004
 30
0.0
 11
3.253589476995558
 21
7.676542393335208
 31
0.0
  0
LINE
  5
138
330
A6
100
AcDbEntity
  8
0
 62
     0
100
AcDbLine
 10
2.842569260352122
 20
7.286735380127371
 30
0.0
 11
2.847872561211021
 21
7.29203868098627
 31
0.0
  0
LINE
  5
139
330
A6
100
AcDbEntity
  8
0
 62
     0
100
AcDbLine
 10
2.850524211640471
 20
7.294690331415719
 30
0.0
 11
2.85582751249937
 21
7.299993632274619
 31
0.0
  0
LINE
  5
13A
330
A6
100
AcDbEntity
  8
0
 62
     0
100
AcDbLine
 10
2.85847916292882
 20
7.302645282704068
 30
0.0
 11
2.863782463787719
 21
7.307948583562967
 31
0.0
  0
LINE
  5
13B
330
A6
100
AcDbEntity
  8
0
 62
     0
100
AcDbLine
 10
2.866434114217168
 20
7.310600233992416
 30
0.0
 11
2.871737415076068
 21
7.315903534851315
 31
0.0
  0
LINE
  5
13C
330
A6
100
AcDbEntity
  8
0
 62
     0
100
AcDbLine
 10
2.874389065505517
 20
7.318555185280764
 30
0.0
 11
2.879692366364416
 21
7.323858486139664
 31
0.0
  0
LINE
  5
13D
330
A6
100
AcDbEntity
  8
0
 62
     0
100
AcDbLine
 10
2.882344016793866
 20
7.326510136569113
 30
0.0
 11
2.887647317652765
 21
7.331813437428012
 31
0.0
  0
LINE
  5
13E
330
A6
100
AcDbEntity
  8
0
 62
     0
100
AcDbLine
 10
2.890298968082215
 20
7.334465087857461
 30
0.0
 11
2.895602268941114
 21
7.33976838871636
 31
0.0
  0
LINE
  5
13F
330
A6
100
AcDbEntity
  8
0
 62
     0
100
AcDbLine
 10
2.898253919370564
 20
7.342420039145809
 30
0.0
 11
2.903557220229463
 21
7.347723340004709
 31
0.0
  0
LINE
  5
140
330
A6
100
AcDbEntity
  8
0
 62
     0
100
AcDbLine
 10
3.179816488707152
 20
7.623982608482402
 30
0.0
 11
3.181980515321664
 21
7.626146635096914
 31
0.0
  0
LINE
  5
141
330
A6
100
AcDbEntity
  8
0
 62
     0
100
AcDbLine
 10
3.184632165751114
 20
7.628798285526363
 30
0.0
 11
3.189935466610013
 21
7.634101586385262
 31
0.0
  0
LINE
  5
142
330
A6
100
AcDbEntity
  8
0
 62
     0
100
AcDbLine
 10
3.192587117039463
 20
7.636753236814711
 30
0.0
 11
3.197890417898362
 21
7.64205653767361
 31
0.0
  0
LINE
  5
143
330
A6
100
AcDbEntity
  8
0
 62
     0
100
AcDbLine
 10
3.200542068327811
 20
7.644708188103059
 30
0.0
 11
3.205845369186711
 21
7.650011488961959
 31
0.0
  0
LINE
  5
144
330
A6
100
AcDbEntity
  8
0
 62
     0
100
AcDbLine
 10
3.20849701961616
 20
7.652663139391408
 30
0.0
 11
3.213800320475059
 21
7.657966440250307
 31
0.0
  0
LINE
  5
145
330
A6
100
AcDbEntity
  8
0
 62
     0
100
AcDbLine
 10
3.216451970904509
 20
7.660618090679756
 30
0.0
 11
3.221755271763408
 21
7.665921391538655
 31
0.0
  0
LINE
  5
146
330
A6
100
AcDbEntity
  8
0
 62
     0
100
AcDbLine
 10
3.224406922192858
 20
7.668573041968104
 30
0.0
 11
3.229710223051757
 21
7.673876342827004
 31
0.0
  0
LINE
  5
147
330
A6
100
AcDbEntity
  8
0
 62
     0
100
AcDbLine
 10
3.232361873481206
 20
7.676527993256453
 30
0.0
 11
3.232376273559961
 21
7.676542393335207
 31
0.0
  0
LINE
  5
148
330
A6
100
AcDbEntity
  8
0
 62
     0
100
AcDbLine
 10
2.818882043942373
 20
7.284261367153219
 30
0.0
 11
2.821356056916526
 21
7.286735380127372
 31
0.0
  0
LINE
  5
149
330
A6
100
AcDbEntity
  8
0
 62
     0
100
AcDbLine
 10
2.824007707345975
 20
7.289387030556821
 30
0.0
 11
2.829311008204874
 21
7.29469033141572
 31
0.0
  0
LINE
  5
14A
330
A6
100
AcDbEntity
  8
0
 62
     0
100
AcDbLine
 10
2.831962658634324
 20
7.297341981845169
 30
0.0
 11
2.837265959493223
 21
7.302645282704069
 31
0.0
  0
LINE
  5
14B
330
A6
100
AcDbEntity
  8
0
 62
     0
100
AcDbLine
 10
2.839917609922673
 20
7.305296933133518
 30
0.0
 11
2.845220910781572
 21
7.310600233992417
 31
0.0
  0
LINE
  5
14C
330
A6
100
AcDbEntity
  8
0
 62
     0
100
AcDbLine
 10
2.847872561211021
 20
7.313251884421866
 30
0.0
 11
2.853175862069921
 21
7.318555185280765
 31
0.0
  0
LINE
  5
14D
330
A6
100
AcDbEntity
  8
0
 62
     0
100
AcDbLine
 10
2.85582751249937
 20
7.321206835710214
 30
0.0
 11
2.861130813358269
 21
7.326510136569114
 31
0.0
  0
LINE
  5
14E
330
A6
100
AcDbEntity
  8
0
 62
     0
100
AcDbLine
 10
2.863782463787719
 20
7.329161786998563
 30
0.0
 11
2.869085764646618
 21
7.334465087857462
 31
0.0
  0
LINE
  5
14F
330
A6
100
AcDbEntity
  8
0
 62
     0
100
AcDbLine
 10
2.871737415076068
 20
7.337116738286911
 30
0.0
 11
2.877040715934967
 21
7.34242003914581
 31
0.0
  0
LINE
  5
150
330
A6
100
AcDbEntity
  8
0
 62
     0
100
AcDbLine
 10
2.879692366364416
 20
7.345071689575259
 30
0.0
 11
2.884995667223316
 21
7.350374990434159
 31
0.0
  0
LINE
  5
151
330
A6
100
AcDbEntity
  8
0
 62
     0
100
AcDbLine
 10
2.887647317652765
 20
7.353026640863608
 30
0.0
 11
2.888467441368364
 21
7.353846764579206
 31
0.0
  0
LINE
  5
152
330
A6
100
AcDbEntity
  8
0
 62
     0
100
AcDbLine
 10
3.160085772730709
 20
7.625465095941556
 30
0.0
 11
3.163418962315518
 21
7.628798285526364
 31
0.0
  0
LINE
  5
153
330
A6
100
AcDbEntity
  8
0
 62
     0
100
AcDbLine
 10
3.166070612744967
 20
7.631449935955814
 30
0.0
 11
3.171373913603866
 21
7.636753236814713
 31
0.0
  0
LINE
  5
154
330
A6
100
AcDbEntity
  8
0
 62
     0
100
AcDbLine
 10
3.174025564033316
 20
7.639404887244162
 30
0.0
 11
3.179328864892215
 21
7.644708188103061
 31
0.0
  0
LINE
  5
155
330
A6
100
AcDbEntity
  8
0
 62
     0
100
AcDbLine
 10
3.181980515321665
 20
7.64735983853251
 30
0.0
 11
3.187283816180564
 21
7.652663139391409
 31
0.0
  0
LINE
  5
156
330
A6
100
AcDbEntity
  8
0
 62
     0
100
AcDbLine
 10
3.189935466610013
 20
7.655314789820859
 30
0.0
 11
3.195238767468913
 21
7.660618090679758
 31
0.0
  0
LINE
  5
157
330
A6
100
AcDbEntity
  8
0
 62
     0
100
AcDbLine
 10
3.197890417898362
 20
7.663269741109207
 30
0.0
 11
3.203193718757261
 21
7.668573041968106
 31
0.0
  0
LINE
  5
158
330
A6
100
AcDbEntity
  8
0
 62
     0
100
AcDbLine
 10
3.205845369186711
 20
7.671224692397555
 30
0.0
 11
3.21114867004561
 21
7.676527993256454
 31
0.0
  0
LINE
  5
159
330
A6
100
AcDbEntity
  8
0
 62
     0
100
AcDbLine
 10
2.797668840506777
 20
7.284261367153219
 30
0.0
 11
2.802794503910378
 21
7.28938703055682
 31
0.0
  0
LINE
  5
15A
330
A6
100
AcDbEntity
  8
0
 62
     0
100
AcDbLine
 10
2.805446154339827
 20
7.292038680986269
 30
0.0
 11
2.810749455198727
 21
7.297341981845169
 31
0.0
  0
LINE
  5
15B
330
A6
100
AcDbEntity
  8
0
 62
     0
100
AcDbLine
 10
2.813401105628176
 20
7.299993632274618
 30
0.0
 11
2.818704406487075
 21
7.305296933133517
 31
0.0
  0
LINE
  5
15C
330
A6
100
AcDbEntity
  8
0
 62
     0
100
AcDbLine
 10
2.821356056916525
 20
7.307948583562966
 30
0.0
 11
2.826659357775424
 21
7.313251884421865
 31
0.0
  0
LINE
  5
15D
330
A6
100
AcDbEntity
  8
0
 62
     0
100
AcDbLine
 10
2.829311008204874
 20
7.315903534851314
 30
0.0
 11
2.834614309063773
 21
7.321206835710214
 31
0.0
  0
LINE
  5
15E
330
A6
100
AcDbEntity
  8
0
 62
     0
100
AcDbLine
 10
2.837265959493223
 20
7.323858486139663
 30
0.0
 11
2.842569260352122
 21
7.329161786998562
 31
0.0
  0
LINE
  5
15F
330
A6
100
AcDbEntity
  8
0
 62
     0
100
AcDbLine
 10
2.845220910781571
 20
7.331813437428011
 30
0.0
 11
2.85052421164047
 21
7.33711673828691
 31
0.0
  0
LINE
  5
160
330
A6
100
AcDbEntity
  8
0
 62
     0
100
AcDbLine
 10
2.85317586206992
 20
7.339768388716359
 30
0.0
 11
2.858479162928819
 21
7.345071689575259
 31
0.0
  0
LINE
  5
161
330
A6
100
AcDbEntity
  8
0
 62
     0
100
AcDbLine
 10
2.861130813358269
 20
7.347723340004708
 30
0.0
 11
2.866434114217168
 21
7.353026640863607
 31
0.0
  0
LINE
  5
162
330
A6
100
AcDbEntity
  8
0
 62
     0
100
AcDbLine
 10
2.869085764646618
 20
7.355678291293056
 30
0.0
 11
2.871472588546372
 21
7.358065115192811
 31
0.0
  0
LINE
  5
163
330
A6
100
AcDbEntity
  8
0
 62
     0
100
AcDbLine
 10
3.1399958961993
 20
7.626588422845743
 30
0.0
 11
3.14485740930937
 21
7.631449935955813
 31
0.0
  0
LINE
  5
164
330
A6
100
AcDbEntity
  8
0
 62
     0
100
AcDbLine
 10
3.14750905973882
 20
7.634101586385262
 30
0.0
 11
3.152812360597719
 21
7.639404887244161
 31
0.0
  0
LINE
  5
165
330
A6
100
AcDbEntity
  8
0
 62
     0
100
AcDbLine
 10
3.155464011027169
 20
7.64205653767361
 30
0.0
 11
3.160767311886068
 21
7.647359838532509
 31
0.0
  0
LINE
  5
166
330
A6
100
AcDbEntity
  8
0
 62
     0
100
AcDbLine
 10
3.163418962315518
 20
7.650011488961959
 30
0.0
 11
3.168722263174417
 21
7.655314789820858
 31
0.0
  0
LINE
  5
167
330
A6
100
AcDbEntity
  8
0
 62
     0
100
AcDbLine
 10
3.171373913603866
 20
7.657966440250307
 30
0.0
 11
3.176677214462765
 21
7.663269741109206
 31
0.0
  0
LINE
  5
168
330
A6
100
AcDbEntity
  8
0
 62
     0
100
AcDbLine
 10
3.179328864892215
 20
7.665921391538655
 30
0.0
 11
3.184632165751114
 21
7.671224692397554
 31
0.0
  0
LINE
  5
169
330
A6
100
AcDbEntity
  8
0
 62
     0
100
AcDbLine
 10
3.187283816180564
 20
7.673876342827004
 30
0.0
 11
3.189949866688768
 21
7.676542393335208
 31
0.0
  0
LINE
  5
16A
330
A6
100
AcDbEntity
  8
0
 62
     0
100
AcDbLine
 10
2.778929650045332
 20
7.286735380127371
 30
0.0
 11
2.784232950904232
 21
7.29203868098627
 31
0.0
  0
LINE
  5
16B
330
A6
100
AcDbEntity
  8
0
 62
     0
100
AcDbLine
 10
2.786884601333681
 20
7.294690331415719
 30
0.0
 11
2.79218790219258
 21
7.299993632274619
 31
0.0
  0
LINE
  5
16C
330
A6
100
AcDbEntity
  8
0
 62
     0
100
AcDbLine
 10
2.79483955262203
 20
7.302645282704068
 30
0.0
 11
2.800142853480929
 21
7.307948583562967
 31
0.0
  0
LINE
  5
16D
330
A6
100
AcDbEntity
  8
0
 62
     0
100
AcDbLine
 10
2.802794503910379
 20
7.310600233992416
 30
0.0
 11
2.808097804769278
 21
7.315903534851315
 31
0.0
  0
LINE
  5
16E
330
A6
100
AcDbEntity
  8
0
 62
     0
100
AcDbLine
 10
2.810749455198727
 20
7.318555185280764
 30
0.0
 11
2.816052756057627
 21
7.323858486139664
 31
0.0
  0
LINE
  5
16F
330
A6
100
AcDbEntity
  8
0
 62
     0
100
AcDbLine
 10
2.818704406487076
 20
7.326510136569113
 30
0.0
 11
2.824007707345975
 21
7.331813437428012
 31
0.0
  0
LINE
  5
170
330
A6
100
AcDbEntity
  8
0
 62
     0
100
AcDbLine
 10
2.826659357775425
 20
7.334465087857461
 30
0.0
 11
2.831962658634324
 21
7.33976838871636
 31
0.0
  0
LINE
  5
171
330
A6
100
AcDbEntity
  8
0
 62
     0
100
AcDbLine
 10
2.834614309063774
 20
7.342420039145809
 30
0.0
 11
2.839917609922673
 21
7.347723340004709
 31
0.0
  0
LINE
  5
172
330
A6
100
AcDbEntity
  8
0
 62
     0
100
AcDbLine
 10
2.842569260352123
 20
7.350374990434158
 30
0.0
 11
2.847872561211022
 21
7.355678291293057
 31
0.0
  0
LINE
  5
173
330
A6
100
AcDbEntity
  8
0
 62
     0
100
AcDbLine
 10
2.850524211640471
 20
7.358329941722506
 30
0.0
 11
2.854894344442162
 21
7.362700074524196
 31
0.0
  0
LINE
  5
174
330
A6
100
AcDbEntity
  8
0
 62
     0
100
AcDbLine
 10
3.120992555444325
 20
7.628798285526364
 30
0.0
 11
3.126295856303224
 21
7.634101586385263
 31
0.0
  0
LINE
  5
175
330
A6
100
AcDbEntity
  8
0
 62
     0
100
AcDbLine
 10
3.128947506732674
 20
7.636753236814712
 30
0.0
 11
3.134250807591573
 21
7.642056537673611
 31
0.0
  0
LINE
  5
176
330
A6
100
AcDbEntity
  8
0
 62
     0
100
AcDbLine
 10
3.136902458021022
 20
7.64470818810306
 30
0.0
 11
3.142205758879922
 21
7.650011488961959
 31
0.0
  0
LINE
  5
177
330
A6
100
AcDbEntity
  8
0
 62
     0
100
AcDbLine
 10
3.144857409309371
 20
7.652663139391409
 30
0.0
 11
3.15016071016827
 21
7.657966440250308
 31
0.0
  0
LINE
  5
178
330
A6
100
AcDbEntity
  8
0
 62
     0
100
AcDbLine
 10
3.15281236059772
 20
7.660618090679757
 30
0.0
 11
3.158115661456619
 21
7.665921391538656
 31
0.0
  0
LINE
  5
179
330
A6
100
AcDbEntity
  8
0
 62
     0
100
AcDbLine
 10
3.160767311886069
 20
7.668573041968105
 30
0.0
 11
3.166070612744968
 21
7.673876342827004
 31
0.0
  0
LINE
  5
17A
330
A6
100
AcDbEntity
  8
0
 62
     0
100
AcDbLine
 10
3.168722263174418
 20
7.676527993256454
 30
0.0
 11
3.168736663253171
 21
7.676542393335208
 31
0.0
  0
LINE
  5
17B
330
A6
100
AcDbEntity
  8
0
 62
     0
100
AcDbLine
 10
2.755242433635584
 20
7.284261367153219
 30
0.0
 11
2.757716446609736
 21
7.286735380127371
 31
0.0
  0
LINE
  5
17C
330
A6
100
AcDbEntity
  8
0
 62
     0
100
AcDbLine
 10
2.760368097039186
 20
7.28938703055682
 30
0.0
 11
2.765671397898085
 21
7.294690331415719
 31
0.0
  0
LINE
  5
17D
330
A6
100
AcDbEntity
  8
0
 62
     0
100
AcDbLine
 10
2.768323048327534
 20
7.297341981845169
 30
0.0
 11
2.773626349186434
 21
7.302645282704068
 31
0.0
  0
LINE
  5
17E
330
A6
100
AcDbEntity
  8
0
 62
     0
100
AcDbLine
 10
2.776277999615883
 20
7.305296933133517
 30
0.0
 11
2.781581300474782
 21
7.310600233992416
 31
0.0
  0
LINE
  5
17F
330
A6
100
AcDbEntity
  8
0
 62
     0
100
AcDbLine
 10
2.784232950904232
 20
7.313251884421865
 30
0.0
 11
2.789536251763131
 21
7.318555185280764
 31
0.0
  0
LINE
  5
180
330
A6
100
AcDbEntity
  8
0
 62
     0
100
AcDbLine
 10
2.792187902192581
 20
7.321206835710214
 30
0.0
 11
2.79749120305148
 21
7.326510136569113
 31
0.0
  0
LINE
  5
181
330
A6
100
AcDbEntity
  8
0
 62
     0
100
AcDbLine
 10
2.800142853480929
 20
7.329161786998562
 30
0.0
 11
2.805446154339829
 21
7.334465087857461
 31
0.0
  0
LINE
  5
182
330
A6
100
AcDbEntity
  8
0
 62
     0
100
AcDbLine
 10
2.808097804769278
 20
7.33711673828691
 30
0.0
 11
2.813401105628178
 21
7.342420039145809
 31
0.0
  0
LINE
  5
183
330
A6
100
AcDbEntity
  8
0
 62
     0
100
AcDbLine
 10
2.816052756057627
 20
7.345071689575259
 30
0.0
 11
2.821356056916526
 21
7.350374990434158
 31
0.0
  0
LINE
  5
184
330
A6
100
AcDbEntity
  8
0
 62
     0
100
AcDbLine
 10
2.824007707345976
 20
7.353026640863607
 30
0.0
 11
2.829311008204875
 21
7.358329941722506
 31
0.0
  0
LINE
  5
185
330
A6
100
AcDbEntity
  8
0
 62
     0
100
AcDbLine
 10
2.831962658634325
 20
7.360981592151955
 30
0.0
 11
2.837265959493224
 21
7.366284893010854
 31
0.0
  0
LINE
  5
186
330
A6
100
AcDbEntity
  8
0
 62
     0
100
AcDbLine
 10
3.098660036029557
 20
7.627678969547193
 30
0.0
 11
3.099779352008729
 21
7.628798285526364
 31
0.0
  0
LINE
  5
187
330
A6
100
AcDbEntity
  8
0
 62
     0
100
AcDbLine
 10
3.102431002438178
 20
7.631449935955813
 30
0.0
 11
3.107734303297077
 21
7.636753236814712
 31
0.0
  0
LINE
  5
188
330
A6
100
AcDbEntity
  8
0
 62
     0
100
AcDbLine
 10
3.110385953726527
 20
7.639404887244161
 30
0.0
 11
3.115689254585426
 21
7.64470818810306
 31
0.0
  0
LINE
  5
189
330
A6
100
AcDbEntity
  8
0
 62
     0
100
AcDbLine
 10
3.118340905014876
 20
7.647359838532509
 30
0.0
 11
3.123644205873775
 21
7.652663139391409
 31
0.0
  0
LINE
  5
18A
330
A6
100
AcDbEntity
  8
0
 62
     0
100
AcDbLine
 10
3.126295856303225
 20
7.655314789820858
 30
0.0
 11
3.131599157162124
 21
7.660618090679757
 31
0.0
  0
LINE
  5
18B
330
A6
100
AcDbEntity
  8
0
 62
     0
100
AcDbLine
 10
3.134250807591573
 20
7.663269741109206
 30
0.0
 11
3.139554108450473
 21
7.668573041968105
 31
0.0
  0
LINE
  5
18C
330
A6
100
AcDbEntity
  8
0
 62
     0
100
AcDbLine
 10
3.142205758879922
 20
7.671224692397554
 30
0.0
 11
3.147509059738821
 21
7.676527993256454
 31
0.0
  0
LINE
  5
18D
330
A6
100
AcDbEntity
  8
0
 62
     0
100
AcDbLine
 10
2.734029230199988
 20
7.284261367153219
 30
0.0
 11
2.739154893603589
 21
7.289387030556821
 31
0.0
  0
LINE
  5
18E
330
A6
100
AcDbEntity
  8
0
 62
     0
100
AcDbLine
 10
2.741806544033039
 20
7.29203868098627
 30
0.0
 11
2.747109844891938
 21
7.297341981845169
 31
0.0
  0
LINE
  5
18F
330
A6
100
AcDbEntity
  8
0
 62
     0
100
AcDbLine
 10
2.749761495321388
 20
7.299993632274619
 30
0.0
 11
2.755064796180287
 21
7.305296933133518
 31
0.0
  0
LINE
  5
190
330
A6
100
AcDbEntity
  8
0
 62
     0
100
AcDbLine
 10
2.757716446609737
 20
7.307948583562967
 30
0.0
 11
2.763019747468636
 21
7.313251884421866
 31
0.0
  0
LINE
  5
191
330
A6
100
AcDbEntity
  8
0
 62
     0
100
AcDbLine
 10
2.765671397898085
 20
7.315903534851315
 30
0.0
 11
2.770974698756984
 21
7.321206835710214
 31
0.0
  0
LINE
  5
192
330
A6
100
AcDbEntity
  8
0
 62
     0
100
AcDbLine
 10
2.773626349186434
 20
7.323858486139664
 30
0.0
 11
2.778929650045333
 21
7.329161786998563
 31
0.0
  0
LINE
  5
193
330
A6
100
AcDbEntity
  8
0
 62
     0
100
AcDbLine
 10
2.781581300474783
 20
7.331813437428012
 30
0.0
 11
2.786884601333682
 21
7.337116738286911
 31
0.0
  0
LINE
  5
194
330
A6
100
AcDbEntity
  8
0
 62
     0
100
AcDbLine
 10
2.789536251763132
 20
7.33976838871636
 30
0.0
 11
2.794839552622031
 21
7.345071689575259
 31
0.0
  0
LINE
  5
195
330
A6
100
AcDbEntity
  8
0
 62
     0
100
AcDbLine
 10
2.79749120305148
 20
7.347723340004709
 30
0.0
 11
2.80279450391038
 21
7.353026640863608
 31
0.0
  0
LINE
  5
196
330
A6
100
AcDbEntity
  8
0
 62
     0
100
AcDbLine
 10
2.805446154339829
 20
7.355678291293057
 30
0.0
 11
2.810749455198728
 21
7.360981592151956
 31
0.0
  0
LINE
  5
197
330
A6
100
AcDbEntity
  8
0
 62
     0
100
AcDbLine
 10
2.813401105628178
 20
7.363633242581405
 30
0.0
 11
2.818704406487077
 21
7.368936543440304
 31
0.0
  0
LINE
  5
198
330
A6
100
AcDbEntity
  8
0
 62
     0
100
AcDbLine
 10
2.821356056916527
 20
7.371588193869754
 30
0.0
 11
2.822910187173818
 21
7.373142324127044
 31
0.0
  0
LINE
  5
199
330
A6
100
AcDbEntity
  8
0
 62
     0
100
AcDbLine
 10
3.077368796648781
 20
7.627600933602012
 30
0.0
 11
3.081217799002581
 21
7.631449935955813
 31
0.0
  0
LINE
  5
19A
330
A6
100
AcDbEntity
  8
0
 62
     0
100
AcDbLine
 10
3.083869449432031
 20
7.634101586385262
 30
0.0
 11
3.08917275029093
 21
7.639404887244161
 31
0.0
  0
LINE
  5
19B
330
A6
100
AcDbEntity
  8
0
 62
     0
100
AcDbLine
 10
3.09182440072038
 20
7.64205653767361
 30
0.0
 11
3.097127701579279
 21
7.647359838532509
 31
0.0
  0
LINE
  5
19C
330
A6
100
AcDbEntity
  8
0
 62
     0
100
AcDbLine
 10
3.099779352008729
 20
7.650011488961959
 30
0.0
 11
3.105082652867628
 21
7.655314789820858
 31
0.0
  0
LINE
  5
19D
330
A6
100
AcDbEntity
  8
0
 62
     0
100
AcDbLine
 10
3.107734303297077
 20
7.657966440250307
 30
0.0
 11
3.113037604155977
 21
7.663269741109206
 31
0.0
  0
LINE
  5
19E
330
A6
100
AcDbEntity
  8
0
 62
     0
100
AcDbLine
 10
3.115689254585426
 20
7.665921391538655
 30
0.0
 11
3.120992555444325
 21
7.671224692397554
 31
0.0
  0
LINE
  5
19F
330
A6
100
AcDbEntity
  8
0
 62
     0
100
AcDbLine
 10
3.123644205873775
 20
7.673876342827004
 30
0.0
 11
3.126310256381979
 21
7.676542393335208
 31
0.0
  0
LINE
  5
1A0
330
A6
100
AcDbEntity
  8
0
 62
     0
100
AcDbLine
 10
2.715290039738543
 20
7.286735380127371
 30
0.0
 11
2.720593340597443
 21
7.29203868098627
 31
0.0
  0
LINE
  5
1A1
330
A6
100
AcDbEntity
  8
0
 62
     0
100
AcDbLine
 10
2.723244991026892
 20
7.294690331415719
 30
0.0
 11
2.728548291885791
 21
7.299993632274619
 31
0.0
  0
LINE
  5
1A2
330
A6
100
AcDbEntity
  8
0
 62
     0
100
AcDbLine
 10
2.731199942315241
 20
7.302645282704068
 30
0.0
 11
2.73650324317414
 21
7.307948583562967
 31
0.0
  0
LINE
  5
1A3
330
A6
100
AcDbEntity
  8
0
 62
     0
100
AcDbLine
 10
2.73915489360359
 20
7.310600233992416
 30
0.0
 11
2.744458194462489
 21
7.315903534851315
 31
0.0
  0
LINE
  5
1A4
330
A6
100
AcDbEntity
  8
0
 62
     0
100
AcDbLine
 10
2.747109844891939
 20
7.318555185280764
 30
0.0
 11
2.752413145750838
 21
7.323858486139664
 31
0.0
  0
LINE
  5
1A5
330
A6
100
AcDbEntity
  8
0
 62
     0
100
AcDbLine
 10
2.755064796180287
 20
7.326510136569113
 30
0.0
 11
2.760368097039187
 21
7.331813437428012
 31
0.0
  0
LINE
  5
1A6
330
A6
100
AcDbEntity
  8
0
 62
     0
100
AcDbLine
 10
2.763019747468636
 20
7.334465087857461
 30
0.0
 11
2.768323048327535
 21
7.33976838871636
 31
0.0
  0
LINE
  5
1A7
330
A6
100
AcDbEntity
  8
0
 62
     0
100
AcDbLine
 10
2.770974698756985
 20
7.342420039145809
 30
0.0
 11
2.776277999615884
 21
7.347723340004709
 31
0.0
  0
LINE
  5
1A8
330
A6
100
AcDbEntity
  8
0
 62
     0
100
AcDbLine
 10
2.778929650045334
 20
7.350374990434158
 30
0.0
 11
2.784232950904233
 21
7.355678291293057
 31
0.0
  0
LINE
  5
1A9
330
A6
100
AcDbEntity
  8
0
 62
     0
100
AcDbLine
 10
2.786884601333682
 20
7.358329941722506
 30
0.0
 11
2.792187902192582
 21
7.363633242581405
 31
0.0
  0
LINE
  5
1AA
330
A6
100
AcDbEntity
  8
0
 62
     0
100
AcDbLine
 10
2.794839552622031
 20
7.366284893010854
 30
0.0
 11
2.800142853480931
 21
7.371588193869754
 31
0.0
  0
LINE
  5
1AB
330
A6
100
AcDbEntity
  8
0
 62
     0
100
AcDbLine
 10
2.80279450391038
 20
7.374239844299203
 30
0.0
 11
2.807507986430333
 21
7.378953326819155
 31
0.0
  0
LINE
  5
1AC
330
A6
100
AcDbEntity
  8
0
 62
     0
100
AcDbLine
 10
3.057352945137536
 20
7.628798285526364
 30
0.0
 11
3.062656245996435
 21
7.634101586385263
 31
0.0
  0
LINE
  5
1AD
330
A6
100
AcDbEntity
  8
0
 62
     0
100
AcDbLine
 10
3.065307896425885
 20
7.636753236814712
 30
0.0
 11
3.070611197284784
 21
7.642056537673611
 31
0.0
  0
LINE
  5
1AE
330
A6
100
AcDbEntity
  8
0
 62
     0
100
AcDbLine
 10
3.073262847714234
 20
7.64470818810306
 30
0.0
 11
3.078566148573133
 21
7.650011488961959
 31
0.0
  0
LINE
  5
1AF
330
A6
100
AcDbEntity
  8
0
 62
     0
100
AcDbLine
 10
3.081217799002582
 20
7.652663139391409
 30
0.0
 11
3.086521099861482
 21
7.657966440250308
 31
0.0
  0
LINE
  5
1B0
330
A6
100
AcDbEntity
  8
0
 62
     0
100
AcDbLine
 10
3.089172750290931
 20
7.660618090679757
 30
0.0
 11
3.09447605114983
 21
7.665921391538656
 31
0.0
  0
LINE
  5
1B1
330
A6
100
AcDbEntity
  8
0
 62
     0
100
AcDbLine
 10
3.09712770157928
 20
7.668573041968105
 30
0.0
 11
3.102431002438179
 21
7.673876342827004
 31
0.0
  0
LINE
  5
1B2
330
A6
100
AcDbEntity
  8
0
 62
     0
100
AcDbLine
 10
3.105082652867629
 20
7.676527993256454
 30
0.0
 11
3.105097052946383
 21
7.676542393335208
 31
0.0
  0
LINE
  5
1B3
330
A6
100
AcDbEntity
  8
0
 62
     0
100
AcDbLine
 10
2.692261955301009
 20
7.284920499125433
 30
0.0
 11
2.694076836302947
 21
7.286735380127371
 31
0.0
  0
LINE
  5
1B4
330
A6
100
AcDbEntity
  8
0
 62
     0
100
AcDbLine
 10
2.696728486732397
 20
7.28938703055682
 30
0.0
 11
2.702031787591296
 21
7.294690331415719
 31
0.0
  0
LINE
  5
1B5
330
A6
100
AcDbEntity
  8
0
 62
     0
100
AcDbLine
 10
2.704683438020746
 20
7.297341981845169
 30
0.0
 11
2.709986738879645
 21
7.302645282704068
 31
0.0
  0
LINE
  5
1B6
330
A6
100
AcDbEntity
  8
0
 62
     0
100
AcDbLine
 10
2.712638389309094
 20
7.305296933133517
 30
0.0
 11
2.717941690167994
 21
7.310600233992416
 31
0.0
  0
LINE
  5
1B7
330
A6
100
AcDbEntity
  8
0
 62
     0
100
AcDbLine
 10
2.720593340597443
 20
7.313251884421865
 30
0.0
 11
2.725896641456342
 21
7.318555185280764
 31
0.0
  0
LINE
  5
1B8
330
A6
100
AcDbEntity
  8
0
 62
     0
100
AcDbLine
 10
2.728548291885792
 20
7.321206835710214
 30
0.0
 11
2.733851592744691
 21
7.326510136569113
 31
0.0
  0
LINE
  5
1B9
330
A6
100
AcDbEntity
  8
0
 62
     0
100
AcDbLine
 10
2.736503243174141
 20
7.329161786998562
 30
0.0
 11
2.74180654403304
 21
7.334465087857461
 31
0.0
  0
LINE
  5
1BA
330
A6
100
AcDbEntity
  8
0
 62
     0
100
AcDbLine
 10
2.744458194462489
 20
7.33711673828691
 30
0.0
 11
2.749761495321389
 21
7.342420039145809
 31
0.0
  0
LINE
  5
1BB
330
A6
100
AcDbEntity
  8
0
 62
     0
100
AcDbLine
 10
2.752413145750838
 20
7.345071689575259
 30
0.0
 11
2.757716446609737
 21
7.350374990434158
 31
0.0
  0
LINE
  5
1BC
330
A6
100
AcDbEntity
  8
0
 62
     0
100
AcDbLine
 10
2.760368097039187
 20
7.353026640863607
 30
0.0
 11
2.765671397898086
 21
7.358329941722506
 31
0.0
  0
LINE
  5
1BD
330
A6
100
AcDbEntity
  8
0
 62
     0
100
AcDbLine
 10
2.768323048327536
 20
7.360981592151955
 30
0.0
 11
2.773626349186435
 21
7.366284893010854
 31
0.0
  0
LINE
  5
1BE
330
A6
100
AcDbEntity
  8
0
 62
     0
100
AcDbLine
 10
2.776277999615885
 20
7.368936543440304
 30
0.0
 11
2.781581300474784
 21
7.374239844299203
 31
0.0
  0
LINE
  5
1BF
330
A6
100
AcDbEntity
  8
0
 62
     0
100
AcDbLine
 10
2.784232950904233
 20
7.376891494728652
 30
0.0
 11
2.789536251763133
 21
7.382194795587551
 31
0.0
  0
LINE
  5
1C0
330
A6
100
AcDbEntity
  8
0
 62
     0
100
AcDbLine
 10
2.792187902192582
 20
7.384846446017
 30
0.0
 11
2.792744752887965
 21
7.385403296712383
 31
0.0
  0
LINE
  5
1C1
330
A6
100
AcDbEntity
  8
0
 62
     0
100
AcDbLine
 10
3.03340415742566
 20
7.626062701250085
 30
0.0
 11
3.036139741701939
 21
7.628798285526364
 31
0.0
  0
LINE
  5
1C2
330
A6
100
AcDbEntity
  8
0
 62
     0
100
AcDbLine
 10
3.038791392131389
 20
7.631449935955813
 30
0.0
 11
3.044094692990288
 21
7.636753236814712
 31
0.0
  0
LINE
  5
1C3
330
A6
100
AcDbEntity
  8
0
 62
     0
100
AcDbLine
 10
3.046746343419738
 20
7.639404887244161
 30
0.0
 11
3.052049644278637
 21
7.64470818810306
 31
0.0
  0
LINE
  5
1C4
330
A6
100
AcDbEntity
  8
0
 62
     0
100
AcDbLine
 10
3.054701294708086
 20
7.647359838532509
 30
0.0
 11
3.060004595566986
 21
7.652663139391409
 31
0.0
  0
LINE
  5
1C5
330
A6
100
AcDbEntity
  8
0
 62
     0
100
AcDbLine
 10
3.062656245996435
 20
7.655314789820858
 30
0.0
 11
3.067959546855334
 21
7.660618090679757
 31
0.0
  0
LINE
  5
1C6
330
A6
100
AcDbEntity
  8
0
 62
     0
100
AcDbLine
 10
3.070611197284784
 20
7.663269741109206
 30
0.0
 11
3.075914498143683
 21
7.668573041968105
 31
0.0
  0
LINE
  5
1C7
330
A6
100
AcDbEntity
  8
0
 62
     0
100
AcDbLine
 10
3.078566148573133
 20
7.671224692397554
 30
0.0
 11
3.083869449432032
 21
7.676527993256454
 31
0.0
  0
LINE
  5
1C8
330
A6
100
AcDbEntity
  8
0
 62
     0
100
AcDbLine
 10
2.678166933726249
 20
7.29203868098627
 30
0.0
 11
2.683470234585148
 21
7.297341981845169
 31
0.0
  0
LINE
  5
1C9
330
A6
100
AcDbEntity
  8
0
 62
     0
100
AcDbLine
 10
2.686121885014598
 20
7.299993632274619
 30
0.0
 11
2.691425185873497
 21
7.305296933133518
 31
0.0
  0
LINE
  5
1CA
330
A6
100
AcDbEntity
  8
0
 62
     0
100
AcDbLine
 10
2.694076836302947
 20
7.307948583562967
 30
0.0
 11
2.699380137161846
 21
7.313251884421866
 31
0.0
  0
LINE
  5
1CB
330
A6
100
AcDbEntity
  8
0
 62
     0
100
AcDbLine
 10
2.702031787591296
 20
7.315903534851315
 30
0.0
 11
2.707335088450195
 21
7.321206835710214
 31
0.0
  0
LINE
  5
1CC
330
A6
100
AcDbEntity
  8
0
 62
     0
100
AcDbLine
 10
2.709986738879644
 20
7.323858486139664
 30
0.0
 11
2.715290039738543
 21
7.329161786998563
 31
0.0
  0
LINE
  5
1CD
330
A6
100
AcDbEntity
  8
0
 62
     0
100
AcDbLine
 10
2.717941690167993
 20
7.331813437428012
 30
0.0
 11
2.723244991026892
 21
7.337116738286911
 31
0.0
  0
LINE
  5
1CE
330
A6
100
AcDbEntity
  8
0
 62
     0
100
AcDbLine
 10
2.725896641456342
 20
7.33976838871636
 30
0.0
 11
2.731199942315241
 21
7.345071689575259
 31
0.0
  0
LINE
  5
1CF
330
A6
100
AcDbEntity
  8
0
 62
     0
100
AcDbLine
 10
2.733851592744691
 20
7.347723340004709
 30
0.0
 11
2.73915489360359
 21
7.353026640863608
 31
0.0
  0
LINE
  5
1D0
330
A6
100
AcDbEntity
  8
0
 62
     0
100
AcDbLine
 10
2.741806544033039
 20
7.355678291293057
 30
0.0
 11
2.747109844891939
 21
7.360981592151956
 31
0.0
  0
LINE
  5
1D1
330
A6
100
AcDbEntity
  8
0
 62
     0
100
AcDbLine
 10
2.749761495321388
 20
7.363633242581405
 30
0.0
 11
2.755064796180287
 21
7.368936543440304
 31
0.0
  0
LINE
  5
1D2
330
A6
100
AcDbEntity
  8
0
 62
     0
100
AcDbLine
 10
2.757716446609737
 20
7.371588193869754
 30
0.0
 11
2.763019747468636
 21
7.376891494728653
 31
0.0
  0
LINE
  5
1D3
330
A6
100
AcDbEntity
  8
0
 62
     0
100
AcDbLine
 10
2.765671397898086
 20
7.379543145158102
 30
0.0
 11
2.770974698756985
 21
7.384846446017001
 31
0.0
  0
LINE
  5
1D4
330
A6
100
AcDbEntity
  8
0
 62
     0
100
AcDbLine
 10
2.773626349186435
 20
7.38749809644645
 30
0.0
 11
2.778631730690509
 21
7.392503477950525
 31
0.0
  0
LINE
  5
1D5
330
A6
100
AcDbEntity
  8
0
 62
     0
100
AcDbLine
 10
3.012274887836893
 20
7.626146635096914
 30
0.0
 11
3.017578188695792
 21
7.631449935955814
 31
0.0
  0
LINE
  5
1D6
330
A6
100
AcDbEntity
  8
0
 62
     0
100
AcDbLine
 10
3.020229839125242
 20
7.634101586385263
 30
0.0
 11
3.025533139984141
 21
7.639404887244162
 31
0.0
  0
LINE
  5
1D7
330
A6
100
AcDbEntity
  8
0
 62
     0
100
AcDbLine
 10
3.028184790413591
 20
7.642056537673611
 30
0.0
 11
3.03348809127249
 21
7.64735983853251
 31
0.0
  0
LINE
  5
1D8
330
A6
100
AcDbEntity
  8
0
 62
     0
100
AcDbLine
 10
3.036139741701939
 20
7.650011488961959
 30
0.0
 11
3.041443042560838
 21
7.655314789820859
 31
0.0
  0
LINE
  5
1D9
330
A6
100
AcDbEntity
  8
0
 62
     0
100
AcDbLine
 10
3.044094692990288
 20
7.657966440250308
 30
0.0
 11
3.049397993849187
 21
7.663269741109207
 31
0.0
  0
LINE
  5
1DA
330
A6
100
AcDbEntity
  8
0
 62
     0
100
AcDbLine
 10
3.052049644278637
 20
7.665921391538656
 30
0.0
 11
3.057352945137536
 21
7.671224692397555
 31
0.0
  0
LINE
  5
1DB
330
A6
100
AcDbEntity
  8
0
 62
     0
100
AcDbLine
 10
3.060004595566986
 20
7.673876342827004
 30
0.0
 11
3.062670646075189
 21
7.676542393335208
 31
0.0
  0
LINE
  5
1DC
330
A6
100
AcDbEntity
  8
0
 62
     0
100
AcDbLine
 10
2.664446187587898
 20
7.299531138283516
 30
0.0
 11
2.664908681579002
 21
7.299993632274619
 31
0.0
  0
LINE
  5
1DD
330
A6
100
AcDbEntity
  8
0
 62
     0
100
AcDbLine
 10
2.667560332008451
 20
7.302645282704068
 30
0.0
 11
2.67286363286735
 21
7.307948583562967
 31
0.0
  0
LINE
  5
1DE
330
A6
100
AcDbEntity
  8
0
 62
     0
100
AcDbLine
 10
2.6755152832968
 20
7.310600233992416
 30
0.0
 11
2.680818584155699
 21
7.315903534851315
 31
0.0
  0
LINE
  5
1DF
330
A6
100
AcDbEntity
  8
0
 62
     0
100
AcDbLine
 10
2.683470234585149
 20
7.318555185280764
 30
0.0
 11
2.688773535444048
 21
7.323858486139664
 31
0.0
  0
LINE
  5
1E0
330
A6
100
AcDbEntity
  8
0
 62
     0
100
AcDbLine
 10
2.691425185873498
 20
7.326510136569113
 30
0.0
 11
2.696728486732397
 21
7.331813437428012
 31
0.0
  0
LINE
  5
1E1
330
A6
100
AcDbEntity
  8
0
 62
     0
100
AcDbLine
 10
2.699380137161846
 20
7.334465087857461
 30
0.0
 11
2.704683438020746
 21
7.33976838871636
 31
0.0
  0
LINE
  5
1E2
330
A6
100
AcDbEntity
  8
0
 62
     0
100
AcDbLine
 10
2.707335088450195
 20
7.342420039145809
 30
0.0
 11
2.712638389309094
 21
7.347723340004709
 31
0.0
  0
LINE
  5
1E3
330
A6
100
AcDbEntity
  8
0
 62
     0
100
AcDbLine
 10
2.715290039738544
 20
7.350374990434158
 30
0.0
 11
2.720593340597443
 21
7.355678291293057
 31
0.0
  0
LINE
  5
1E4
330
A6
100
AcDbEntity
  8
0
 62
     0
100
AcDbLine
 10
2.723244991026893
 20
7.358329941722506
 30
0.0
 11
2.728548291885792
 21
7.363633242581405
 31
0.0
  0
LINE
  5
1E5
330
A6
100
AcDbEntity
  8
0
 62
     0
100
AcDbLine
 10
2.731199942315241
 20
7.366284893010854
 30
0.0
 11
2.736503243174141
 21
7.371588193869754
 31
0.0
  0
LINE
  5
1E6
330
A6
100
AcDbEntity
  8
0
 62
     0
100
AcDbLine
 10
2.73915489360359
 20
7.374239844299203
 30
0.0
 11
2.744458194462489
 21
7.379543145158102
 31
0.0
  0
LINE
  5
1E7
330
A6
100
AcDbEntity
  8
0
 62
     0
100
AcDbLine
 10
2.747109844891939
 20
7.382194795587551
 30
0.0
 11
2.752413145750838
 21
7.38749809644645
 31
0.0
  0
LINE
  5
1E8
330
A6
100
AcDbEntity
  8
0
 62
     0
100
AcDbLine
 10
2.755064796180288
 20
7.390149746875899
 30
0.0
 11
2.760368097039187
 21
7.395453047734799
 31
0.0
  0
LINE
  5
1E9
330
A6
100
AcDbEntity
  8
0
 62
     0
100
AcDbLine
 10
2.763019747468637
 20
7.398104698164248
 30
0.0
 11
2.765135083334109
 21
7.40022003402972
 31
0.0
  0
LINE
  5
1EA
330
A6
100
AcDbEntity
  8
0
 62
     0
100
AcDbLine
 10
2.987369702677288
 20
7.622454653372905
 30
0.0
 11
2.991061684401297
 21
7.626146635096914
 31
0.0
  0
LINE
  5
1EB
330
A6
100
AcDbEntity
  8
0
 62
     0
100
AcDbLine
 10
2.993713334830746
 20
7.628798285526364
 30
0.0
 11
2.999016635689645
 21
7.634101586385263
 31
0.0
  0
LINE
  5
1EC
330
A6
100
AcDbEntity
  8
0
 62
     0
100
AcDbLine
 10
3.001668286119095
 20
7.636753236814712
 30
0.0
 11
3.006971586977994
 21
7.642056537673611
 31
0.0
  0
LINE
  5
1ED
330
A6
100
AcDbEntity
  8
0
 62
     0
100
AcDbLine
 10
3.009623237407444
 20
7.64470818810306
 30
0.0
 11
3.014926538266343
 21
7.650011488961959
 31
0.0
  0
LINE
  5
1EE
330
A6
100
AcDbEntity
  8
0
 62
     0
100
AcDbLine
 10
3.017578188695793
 20
7.652663139391409
 30
0.0
 11
3.022881489554692
 21
7.657966440250308
 31
0.0
  0
LINE
  5
1EF
330
A6
100
AcDbEntity
  8
0
 62
     0
100
AcDbLine
 10
3.025533139984141
 20
7.660618090679757
 30
0.0
 11
3.030836440843041
 21
7.665921391538656
 31
0.0
  0
LINE
  5
1F0
330
A6
100
AcDbEntity
  8
0
 62
     0
100
AcDbLine
 10
3.03348809127249
 20
7.668573041968105
 30
0.0
 11
3.038791392131389
 21
7.673876342827004
 31
0.0
  0
LINE
  5
1F1
330
A6
100
AcDbEntity
  8
0
 62
     0
100
AcDbLine
 10
3.041443042560839
 20
7.676527993256454
 30
0.0
 11
3.041457442639593
 21
7.676542393335208
 31
0.0
  0
LINE
  5
1F2
330
A6
100
AcDbEntity
  8
0
 62
     0
100
AcDbLine
 10
2.656953730290653
 20
7.313251884421867
 30
0.0
 11
2.662257031149553
 21
7.318555185280766
 31
0.0
  0
LINE
  5
1F3
330
A6
100
AcDbEntity
  8
0
 62
     0
100
AcDbLine
 10
2.664908681579002
 20
7.321206835710215
 30
0.0
 11
2.670211982437901
 21
7.326510136569114
 31
0.0
  0
LINE
  5
1F4
330
A6
100
AcDbEntity
  8
0
 62
     0
100
AcDbLine
 10
2.672863632867351
 20
7.329161786998564
 30
0.0
 11
2.67816693372625
 21
7.334465087857463
 31
0.0
  0
LINE
  5
1F5
330
A6
100
AcDbEntity
  8
0
 62
     0
100
AcDbLine
 10
2.6808185841557
 20
7.337116738286912
 30
0.0
 11
2.686121885014599
 21
7.342420039145811
 31
0.0
  0
LINE
  5
1F6
330
A6
100
AcDbEntity
  8
0
 62
     0
100
AcDbLine
 10
2.688773535444048
 20
7.34507168957526
 30
0.0
 11
2.694076836302948
 21
7.350374990434159
 31
0.0
  0
LINE
  5
1F7
330
A6
100
AcDbEntity
  8
0
 62
     0
100
AcDbLine
 10
2.696728486732397
 20
7.353026640863609
 30
0.0
 11
2.702031787591296
 21
7.358329941722508
 31
0.0
  0
LINE
  5
1F8
330
A6
100
AcDbEntity
  8
0
 62
     0
100
AcDbLine
 10
2.704683438020746
 20
7.360981592151957
 30
0.0
 11
2.709986738879645
 21
7.366284893010856
 31
0.0
  0
LINE
  5
1F9
330
A6
100
AcDbEntity
  8
0
 62
     0
100
AcDbLine
 10
2.712638389309095
 20
7.368936543440305
 30
0.0
 11
2.717941690167994
 21
7.374239844299204
 31
0.0
  0
LINE
  5
1FA
330
A6
100
AcDbEntity
  8
0
 62
     0
100
AcDbLine
 10
2.720593340597444
 20
7.376891494728654
 30
0.0
 11
2.725896641456343
 21
7.382194795587553
 31
0.0
  0
LINE
  5
1FB
330
A6
100
AcDbEntity
  8
0
 62
     0
100
AcDbLine
 10
2.728548291885792
 20
7.384846446017002
 30
0.0
 11
2.733851592744692
 21
7.390149746875901
 31
0.0
  0
LINE
  5
1FC
330
A6
100
AcDbEntity
  8
0
 62
     0
100
AcDbLine
 10
2.736503243174141
 20
7.39280139730535
 30
0.0
 11
2.74180654403304
 21
7.398104698164249
 31
0.0
  0
LINE
  5
1FD
330
A6
100
AcDbEntity
  8
0
 62
     0
100
AcDbLine
 10
2.74445819446249
 20
7.400756348593699
 30
0.0
 11
2.749761495321389
 21
7.406059649452598
 31
0.0
  0
LINE
  5
1FE
330
A6
100
AcDbEntity
  8
0
 62
     0
100
AcDbLine
 10
2.963471130639575
 20
7.619769284770789
 30
0.0
 11
2.964545180106801
 21
7.620843334238015
 31
0.0
  0
LINE
  5
1FF
330
A6
100
AcDbEntity
  8
0
 62
     0
100
AcDbLine
 10
2.967196830536251
 20
7.623494984667464
 30
0.0
 11
2.97250013139515
 21
7.628798285526364
 31
0.0
  0
LINE
  5
200
330
A6
100
AcDbEntity
  8
0
 62
     0
100
AcDbLine
 10
2.9751517818246
 20
7.631449935955813
 30
0.0
 11
2.980455082683499
 21
7.636753236814712
 31
0.0
  0
LINE
  5
201
330
A6
100
AcDbEntity
  8
0
 62
     0
100
AcDbLine
 10
2.983106733112948
 20
7.639404887244161
 30
0.0
 11
2.988410033971847
 21
7.64470818810306
 31
0.0
  0
LINE
  5
202
330
A6
100
AcDbEntity
  8
0
 62
     0
100
AcDbLine
 10
2.991061684401297
 20
7.647359838532509
 30
0.0
 11
2.996364985260196
 21
7.652663139391409
 31
0.0
  0
LINE
  5
203
330
A6
100
AcDbEntity
  8
0
 62
     0
100
AcDbLine
 10
2.999016635689646
 20
7.655314789820858
 30
0.0
 11
3.004319936548545
 21
7.660618090679757
 31
0.0
  0
LINE
  5
204
330
A6
100
AcDbEntity
  8
0
 62
     0
100
AcDbLine
 10
3.006971586977995
 20
7.663269741109206
 30
0.0
 11
3.012274887836894
 21
7.668573041968105
 31
0.0
  0
LINE
  5
205
330
A6
100
AcDbEntity
  8
0
 62
     0
100
AcDbLine
 10
3.014926538266343
 20
7.671224692397554
 30
0.0
 11
3.020229839125243
 21
7.676527993256454
 31
0.0
  0
LINE
  5
206
330
A6
100
AcDbEntity
  8
0
 62
     0
100
AcDbLine
 10
2.65084899674723
 20
7.32836035431404
 30
0.0
 11
2.651650429431754
 21
7.329161786998564
 31
0.0
  0
LINE
  5
207
330
A6
100
AcDbEntity
  8
0
 62
     0
100
AcDbLine
 10
2.654302079861203
 20
7.331813437428013
 30
0.0
 11
2.659605380720102
 21
7.337116738286912
 31
0.0
  0
LINE
  5
208
330
A6
100
AcDbEntity
  8
0
 62
     0
100
AcDbLine
 10
2.662257031149552
 20
7.339768388716361
 30
0.0
 11
2.667560332008451
 21
7.34507168957526
 31
0.0
  0
LINE
  5
209
330
A6
100
AcDbEntity
  8
0
 62
     0
100
AcDbLine
 10
2.670211982437901
 20
7.347723340004709
 30
0.0
 11
2.6755152832968
 21
7.353026640863609
 31
0.0
  0
LINE
  5
20A
330
A6
100
AcDbEntity
  8
0
 62
     0
100
AcDbLine
 10
2.67816693372625
 20
7.355678291293058
 30
0.0
 11
2.683470234585149
 21
7.360981592151957
 31
0.0
  0
LINE
  5
20B
330
A6
100
AcDbEntity
  8
0
 62
     0
100
AcDbLine
 10
2.686121885014598
 20
7.363633242581406
 30
0.0
 11
2.691425185873498
 21
7.368936543440305
 31
0.0
  0
LINE
  5
20C
330
A6
100
AcDbEntity
  8
0
 62
     0
100
AcDbLine
 10
2.694076836302947
 20
7.371588193869754
 30
0.0
 11
2.699380137161846
 21
7.376891494728654
 31
0.0
  0
LINE
  5
20D
330
A6
100
AcDbEntity
  8
0
 62
     0
100
AcDbLine
 10
2.702031787591296
 20
7.379543145158103
 30
0.0
 11
2.707335088450195
 21
7.384846446017002
 31
0.0
  0
LINE
  5
20E
330
A6
100
AcDbEntity
  8
0
 62
     0
100
AcDbLine
 10
2.709986738879645
 20
7.387498096446451
 30
0.0
 11
2.715290039738544
 21
7.39280139730535
 31
0.0
  0
LINE
  5
20F
330
A6
100
AcDbEntity
  8
0
 62
     0
100
AcDbLine
 10
2.717941690167994
 20
7.395453047734799
 30
0.0
 11
2.723244991026893
 21
7.400756348593699
 31
0.0
  0
LINE
  5
210
330
A6
100
AcDbEntity
  8
0
 62
     0
100
AcDbLine
 10
2.725896641456342
 20
7.403407999023148
 30
0.0
 11
2.731199942315241
 21
7.408711299882047
 31
0.0
  0
LINE
  5
211
330
A6
100
AcDbEntity
  8
0
 62
     0
100
AcDbLine
 10
2.733851592744691
 20
7.411362950311496
 30
0.0
 11
2.73915489360359
 21
7.416666251170395
 31
0.0
  0
LINE
  5
212
330
A6
100
AcDbEntity
  8
0
 62
     0
100
AcDbLine
 10
2.940680326241755
 20
7.618191683808565
 30
0.0
 11
2.945983627100654
 21
7.623494984667464
 31
0.0
  0
LINE
  5
213
330
A6
100
AcDbEntity
  8
0
 62
     0
100
AcDbLine
 10
2.948635277530104
 20
7.626146635096914
 30
0.0
 11
2.953938578389003
 21
7.631449935955813
 31
0.0
  0
LINE
  5
214
330
A6
100
AcDbEntity
  8
0
 62
     0
100
AcDbLine
 10
2.956590228818452
 20
7.634101586385262
 30
0.0
 11
2.961893529677352
 21
7.639404887244161
 31
0.0
  0
LINE
  5
215
330
A6
100
AcDbEntity
  8
0
 62
     0
100
AcDbLine
 10
2.964545180106801
 20
7.64205653767361
 30
0.0
 11
2.9698484809657
 21
7.647359838532509
 31
0.0
  0
LINE
  5
216
330
A6
100
AcDbEntity
  8
0
 62
     0
100
AcDbLine
 10
2.97250013139515
 20
7.650011488961959
 30
0.0
 11
2.977803432254049
 21
7.655314789820858
 31
0.0
  0
LINE
  5
217
330
A6
100
AcDbEntity
  8
0
 62
     0
100
AcDbLine
 10
2.980455082683499
 20
7.657966440250307
 30
0.0
 11
2.985758383542398
 21
7.663269741109206
 31
0.0
  0
LINE
  5
218
330
A6
100
AcDbEntity
  8
0
 62
     0
100
AcDbLine
 10
2.988410033971847
 20
7.665921391538655
 30
0.0
 11
2.993713334830747
 21
7.671224692397554
 31
0.0
  0
LINE
  5
219
330
A6
100
AcDbEntity
  8
0
 62
     0
100
AcDbLine
 10
2.996364985260196
 20
7.673876342827004
 30
0.0
 11
2.999031035768401
 21
7.676542393335208
 31
0.0
  0
LINE
  5
21A
330
A6
100
AcDbEntity
  8
0
 62
     0
100
AcDbLine
 10
2.651650429431754
 20
7.35037499043416
 30
0.0
 11
2.656953730290653
 21
7.35567829129306
 31
0.0
  0
LINE
  5
21B
330
A6
100
AcDbEntity
  8
0
 62
     0
100
AcDbLine
 10
2.659605380720103
 20
7.358329941722509
 30
0.0
 11
2.664908681579002
 21
7.363633242581408
 31
0.0
  0
LINE
  5
21C
330
A6
100
AcDbEntity
  8
0
 62
     0
100
AcDbLine
 10
2.667560332008452
 20
7.366284893010857
 30
0.0
 11
2.672863632867351
 21
7.371588193869756
 31
0.0
  0
LINE
  5
21D
330
A6
100
AcDbEntity
  8
0
 62
     0
100
AcDbLine
 10
2.6755152832968
 20
7.374239844299205
 30
0.0
 11
2.6808185841557
 21
7.379543145158105
 31
0.0
  0
LINE
  5
21E
330
A6
100
AcDbEntity
  8
0
 62
     0
100
AcDbLine
 10
2.683470234585149
 20
7.382194795587554
 30
0.0
 11
2.688773535444048
 21
7.387498096446453
 31
0.0
  0
LINE
  5
21F
330
A6
100
AcDbEntity
  8
0
 62
     0
100
AcDbLine
 10
2.691425185873498
 20
7.390149746875902
 30
0.0
 11
2.696728486732397
 21
7.395453047734801
 31
0.0
  0
LINE
  5
220
330
A6
100
AcDbEntity
  8
0
 62
     0
100
AcDbLine
 10
2.699380137161847
 20
7.39810469816425
 30
0.0
 11
2.704683438020746
 21
7.40340799902315
 31
0.0
  0
LINE
  5
221
330
A6
100
AcDbEntity
  8
0
 62
     0
100
AcDbLine
 10
2.707335088450196
 20
7.406059649452599
 30
0.0
 11
2.712638389309095
 21
7.411362950311498
 31
0.0
  0
LINE
  5
222
330
A6
100
AcDbEntity
  8
0
 62
     0
100
AcDbLine
 10
2.715290039738544
 20
7.414014600740947
 30
0.0
 11
2.720593340597444
 21
7.419317901599846
 31
0.0
  0
LINE
  5
223
330
A6
100
AcDbEntity
  8
0
 62
     0
100
AcDbLine
 10
2.723244991026893
 20
7.421969552029295
 30
0.0
 11
2.728113026311691
 21
7.426837587314094
 31
0.0
  0
LINE
  5
224
330
A6
100
AcDbEntity
  8
0
 62
     0
100
AcDbLine
 10
2.914163821947259
 20
7.612888382949667
 30
0.0
 11
2.919467122806159
 21
7.618191683808566
 31
0.0
  0
LINE
  5
225
330
A6
100
AcDbEntity
  8
0
 62
     0
100
AcDbLine
 10
2.922118773235608
 20
7.620843334238015
 30
0.0
 11
2.927422074094507
 21
7.626146635096914
 31
0.0
  0
LINE
  5
226
330
A6
100
AcDbEntity
  8
0
 62
     0
100
AcDbLine
 10
2.930073724523957
 20
7.628798285526364
 30
0.0
 11
2.935377025382856
 21
7.634101586385263
 31
0.0
  0
LINE
  5
227
330
A6
100
AcDbEntity
  8
0
 62
     0
100
AcDbLine
 10
2.938028675812306
 20
7.636753236814712
 30
0.0
 11
2.943331976671205
 21
7.642056537673611
 31
0.0
  0
LINE
  5
228
330
A6
100
AcDbEntity
  8
0
 62
     0
100
AcDbLine
 10
2.945983627100654
 20
7.64470818810306
 30
0.0
 11
2.951286927959554
 21
7.650011488961959
 31
0.0
  0
LINE
  5
229
330
A6
100
AcDbEntity
  8
0
 62
     0
100
AcDbLine
 10
2.953938578389003
 20
7.652663139391409
 30
0.0
 11
2.959241879247903
 21
7.657966440250308
 31
0.0
  0
LINE
  5
22A
330
A6
100
AcDbEntity
  8
0
 62
     0
100
AcDbLine
 10
2.961893529677352
 20
7.660618090679757
 30
0.0
 11
2.967196830536251
 21
7.665921391538656
 31
0.0
  0
LINE
  5
22B
330
A6
100
AcDbEntity
  8
0
 62
     0
100
AcDbLine
 10
2.969848480965701
 20
7.668573041968105
 30
0.0
 11
2.9751517818246
 21
7.673876342827004
 31
0.0
  0
LINE
  5
22C
330
A6
100
AcDbEntity
  8
0
 62
     0
100
AcDbLine
 10
2.97780343225405
 20
7.676527993256454
 30
0.0
 11
2.977817832332804
 21
7.676542393335208
 31
0.0
  0
LINE
  5
22D
330
A6
100
AcDbEntity
  8
0
 62
     0
100
AcDbLine
 10
2.650519457961591
 20
7.370457222399594
 30
0.0
 11
2.654302079861203
 21
7.374239844299206
 31
0.0
  0
LINE
  5
22E
330
A6
100
AcDbEntity
  8
0
 62
     0
100
AcDbLine
 10
2.656953730290653
 20
7.376891494728655
 30
0.0
 11
2.662257031149552
 21
7.382194795587555
 31
0.0
  0
LINE
  5
22F
330
A6
100
AcDbEntity
  8
0
 62
     0
100
AcDbLine
 10
2.664908681579002
 20
7.384846446017004
 30
0.0
 11
2.670211982437901
 21
7.390149746875903
 31
0.0
  0
LINE
  5
230
330
A6
100
AcDbEntity
  8
0
 62
     0
100
AcDbLine
 10
2.67286363286735
 20
7.392801397305352
 30
0.0
 11
2.67816693372625
 21
7.398104698164251
 31
0.0
  0
LINE
  5
231
330
A6
100
AcDbEntity
  8
0
 62
     0
100
AcDbLine
 10
2.680818584155699
 20
7.4007563485937
 30
0.0
 11
2.686121885014598
 21
7.4060596494526
 31
0.0
  0
LINE
  5
232
330
A6
100
AcDbEntity
  8
0
 62
     0
100
AcDbLine
 10
2.688773535444048
 20
7.408711299882049
 30
0.0
 11
2.694076836302947
 21
7.414014600740948
 31
0.0
  0
LINE
  5
233
330
A6
100
AcDbEntity
  8
0
 62
     0
100
AcDbLine
 10
2.696728486732397
 20
7.416666251170397
 30
0.0
 11
2.702031787591296
 21
7.421969552029296
 31
0.0
  0
LINE
  5
234
330
A6
100
AcDbEntity
  8
0
 62
     0
100
AcDbLine
 10
2.704683438020746
 20
7.424621202458745
 30
0.0
 11
2.709986738879645
 21
7.429924503317645
 31
0.0
  0
LINE
  5
235
330
A6
100
AcDbEntity
  8
0
 62
     0
100
AcDbLine
 10
2.712638389309094
 20
7.432576153747094
 30
0.0
 11
2.716972277038574
 21
7.436910041476573
 31
0.0
  0
LINE
  5
236
330
A6
100
AcDbEntity
  8
0
 62
     0
100
AcDbLine
 10
2.887647317652763
 20
7.607585082090768
 30
0.0
 11
2.892950618511663
 21
7.612888382949667
 31
0.0
  0
LINE
  5
237
330
A6
100
AcDbEntity
  8
0
 62
     0
100
AcDbLine
 10
2.895602268941112
 20
7.615540033379116
 30
0.0
 11
2.900905569800011
 21
7.620843334238015
 31
0.0
  0
LINE
  5
238
330
A6
100
AcDbEntity
  8
0
 62
     0
100
AcDbLine
 10
2.903557220229461
 20
7.623494984667464
 30
0.0
 11
2.90886052108836
 21
7.628798285526364
 31
0.0
  0
LINE
  5
239
330
A6
100
AcDbEntity
  8
0
 62
     0
100
AcDbLine
 10
2.91151217151781
 20
7.631449935955813
 30
0.0
 11
2.916815472376709
 21
7.636753236814712
 31
0.0
  0
LINE
  5
23A
330
A6
100
AcDbEntity
  8
0
 62
     0
100
AcDbLine
 10
2.919467122806159
 20
7.639404887244161
 30
0.0
 11
2.924770423665058
 21
7.64470818810306
 31
0.0
  0
LINE
  5
23B
330
A6
100
AcDbEntity
  8
0
 62
     0
100
AcDbLine
 10
2.927422074094507
 20
7.647359838532509
 30
0.0
 11
2.932725374953406
 21
7.652663139391409
 31
0.0
  0
LINE
  5
23C
330
A6
100
AcDbEntity
  8
0
 62
     0
100
AcDbLine
 10
2.935377025382856
 20
7.655314789820858
 30
0.0
 11
2.940680326241755
 21
7.660618090679757
 31
0.0
  0
LINE
  5
23D
330
A6
100
AcDbEntity
  8
0
 62
     0
100
AcDbLine
 10
2.943331976671205
 20
7.663269741109206
 30
0.0
 11
2.948635277530104
 21
7.668573041968105
 31
0.0
  0
LINE
  5
23E
330
A6
100
AcDbEntity
  8
0
 62
     0
100
AcDbLine
 10
2.951286927959554
 20
7.671224692397554
 30
0.0
 11
2.956590228818453
 21
7.676527993256454
 31
0.0
  0
LINE
  5
23F
330
A6
100
AcDbEntity
  8
0
 62
     0
100
AcDbLine
 10
2.650519457961591
 20
7.39167042583519
 30
0.0
 11
2.651650429431754
 21
7.392801397305353
 31
0.0
  0
LINE
  5
240
330
A6
100
AcDbEntity
  8
0
 62
     0
100
AcDbLine
 10
2.654302079861203
 20
7.395453047734802
 30
0.0
 11
2.659605380720102
 21
7.400756348593701
 31
0.0
  0
LINE
  5
241
330
A6
100
AcDbEntity
  8
0
 62
     0
100
AcDbLine
 10
2.662257031149552
 20
7.40340799902315
 30
0.0
 11
2.667560332008451
 21
7.40871129988205
 31
0.0
  0
LINE
  5
242
330
A6
100
AcDbEntity
  8
0
 62
     0
100
AcDbLine
 10
2.670211982437901
 20
7.411362950311499
 30
0.0
 11
2.6755152832968
 21
7.416666251170398
 31
0.0
  0
LINE
  5
243
330
A6
100
AcDbEntity
  8
0
 62
     0
100
AcDbLine
 10
2.67816693372625
 20
7.419317901599847
 30
0.0
 11
2.683470234585149
 21
7.424621202458746
 31
0.0
  0
LINE
  5
244
330
A6
100
AcDbEntity
  8
0
 62
     0
100
AcDbLine
 10
2.686121885014598
 20
7.427272852888195
 30
0.0
 11
2.691425185873498
 21
7.432576153747095
 31
0.0
  0
LINE
  5
245
330
A6
100
AcDbEntity
  8
0
 62
     0
100
AcDbLine
 10
2.694076836302947
 20
7.435227804176544
 30
0.0
 11
2.699380137161846
 21
7.440531105035443
 31
0.0
  0
LINE
  5
246
330
A6
100
AcDbEntity
  8
0
 62
     0
100
AcDbLine
 10
2.702031787591296
 20
7.443182755464892
 30
0.0
 11
2.707335088450195
 21
7.448486056323791
 31
0.0
  0
LINE
  5
247
330
A6
100
AcDbEntity
  8
0
 62
     0
100
AcDbLine
 10
2.857803861355977
 20
7.598954829229576
 30
0.0
 11
2.858479162928819
 21
7.599630130802419
 31
0.0
  0
LINE
  5
248
330
A6
100
AcDbEntity
  8
0
 62
     0
100
AcDbLine
 10
2.861130813358268
 20
7.602281781231868
 30
0.0
 11
2.866434114217168
 21
7.607585082090767
 31
0.0
  0
LINE
  5
249
330
A6
100
AcDbEntity
  8
0
 62
     0
100
AcDbLine
 10
2.869085764646617
 20
7.610236732520216
 30
0.0
 11
2.874389065505516
 21
7.615540033379115
 31
0.0
  0
LINE
  5
24A
330
A6
100
AcDbEntity
  8
0
 62
     0
100
AcDbLine
 10
2.877040715934966
 20
7.618191683808564
 30
0.0
 11
2.882344016793865
 21
7.623494984667464
 31
0.0
  0
LINE
  5
24B
330
A6
100
AcDbEntity
  8
0
 62
     0
100
AcDbLine
 10
2.884995667223315
 20
7.626146635096913
 30
0.0
 11
2.890298968082214
 21
7.631449935955812
 31
0.0
  0
LINE
  5
24C
330
A6
100
AcDbEntity
  8
0
 62
     0
100
AcDbLine
 10
2.892950618511664
 20
7.634101586385261
 30
0.0
 11
2.898253919370563
 21
7.63940488724416
 31
0.0
  0
LINE
  5
24D
330
A6
100
AcDbEntity
  8
0
 62
     0
100
AcDbLine
 10
2.900905569800012
 20
7.642056537673609
 30
0.0
 11
2.906208870658911
 21
7.647359838532509
 31
0.0
  0
LINE
  5
24E
330
A6
100
AcDbEntity
  8
0
 62
     0
100
AcDbLine
 10
2.908860521088361
 20
7.650011488961958
 30
0.0
 11
2.91416382194726
 21
7.655314789820857
 31
0.0
  0
LINE
  5
24F
330
A6
100
AcDbEntity
  8
0
 62
     0
100
AcDbLine
 10
2.91681547237671
 20
7.657966440250306
 30
0.0
 11
2.922118773235609
 21
7.663269741109205
 31
0.0
  0
LINE
  5
250
330
A6
100
AcDbEntity
  8
0
 62
     0
100
AcDbLine
 10
2.924770423665059
 20
7.665921391538654
 30
0.0
 11
2.930073724523958
 21
7.671224692397554
 31
0.0
  0
LINE
  5
251
330
A6
100
AcDbEntity
  8
0
 62
     0
100
AcDbLine
 10
2.932725374953407
 20
7.673876342827003
 30
0.0
 11
2.935391425461612
 21
7.676542393335207
 31
0.0
  0
LINE
  5
252
330
A6
100
AcDbEntity
  8
0
 62
     0
100
AcDbLine
 10
2.651650429431754
 20
7.41401460074095
 30
0.0
 11
2.656953730290653
 21
7.419317901599849
 31
0.0
  0
LINE
  5
253
330
A6
100
AcDbEntity
  8
0
 62
     0
100
AcDbLine
 10
2.659605380720103
 20
7.421969552029298
 30
0.0
 11
2.664908681579002
 21
7.427272852888197
 31
0.0
  0
LINE
  5
254
330
A6
100
AcDbEntity
  8
0
 62
     0
100
AcDbLine
 10
2.667560332008452
 20
7.429924503317646
 30
0.0
 11
2.672863632867351
 21
7.435227804176546
 31
0.0
  0
LINE
  5
255
330
A6
100
AcDbEntity
  8
0
 62
     0
100
AcDbLine
 10
2.6755152832968
 20
7.437879454605995
 30
0.0
 11
2.6808185841557
 21
7.443182755464894
 31
0.0
  0
LINE
  5
256
330
A6
100
AcDbEntity
  8
0
 62
     0
100
AcDbLine
 10
2.683470234585149
 20
7.445834405894343
 30
0.0
 11
2.688773535444048
 21
7.451137706753242
 31
0.0
  0
LINE
  5
257
330
A6
100
AcDbEntity
  8
0
 62
     0
100
AcDbLine
 10
2.691425185873498
 20
7.453789357182691
 30
0.0
 11
2.696728486732397
 21
7.459092658041591
 31
0.0
  0
LINE
  5
258
330
A6
100
AcDbEntity
  8
0
 62
     0
100
AcDbLine
 10
2.699380137161847
 20
7.46174430847104
 30
0.0
 11
2.701707552849871
 21
7.464071724159064
 31
0.0
  0
LINE
  5
259
330
A6
100
AcDbEntity
  8
0
 62
     0
100
AcDbLine
 10
2.826659357775425
 20
7.589023529084621
 30
0.0
 11
2.831962658634324
 21
7.59432682994352
 31
0.0
  0
LINE
  5
25A
330
A6
100
AcDbEntity
  8
0
 62
     0
100
AcDbLine
 10
2.834614309063773
 20
7.596978480372969
 30
0.0
 11
2.839917609922673
 21
7.602281781231869
 31
0.0
  0
LINE
  5
25B
330
A6
100
AcDbEntity
  8
0
 62
     0
100
AcDbLine
 10
2.842569260352122
 20
7.604933431661318
 30
0.0
 11
2.847872561211021
 21
7.610236732520217
 31
0.0
  0
LINE
  5
25C
330
A6
100
AcDbEntity
  8
0
 62
     0
100
AcDbLine
 10
2.850524211640471
 20
7.612888382949666
 30
0.0
 11
2.85582751249937
 21
7.618191683808565
 31
0.0
  0
LINE
  5
25D
330
A6
100
AcDbEntity
  8
0
 62
     0
100
AcDbLine
 10
2.85847916292882
 20
7.620843334238014
 30
0.0
 11
2.863782463787719
 21
7.626146635096914
 31
0.0
  0
LINE
  5
25E
330
A6
100
AcDbEntity
  8
0
 62
     0
100
AcDbLine
 10
2.866434114217168
 20
7.628798285526363
 30
0.0
 11
2.871737415076068
 21
7.634101586385262
 31
0.0
  0
LINE
  5
25F
330
A6
100
AcDbEntity
  8
0
 62
     0
100
AcDbLine
 10
2.874389065505517
 20
7.636753236814711
 30
0.0
 11
2.879692366364416
 21
7.64205653767361
 31
0.0
  0
LINE
  5
260
330
A6
100
AcDbEntity
  8
0
 62
     0
100
AcDbLine
 10
2.882344016793866
 20
7.644708188103059
 30
0.0
 11
2.887647317652765
 21
7.650011488961959
 31
0.0
  0
LINE
  5
261
330
A6
100
AcDbEntity
  8
0
 62
     0
100
AcDbLine
 10
2.890298968082215
 20
7.652663139391408
 30
0.0
 11
2.895602268941114
 21
7.657966440250307
 31
0.0
  0
LINE
  5
262
330
A6
100
AcDbEntity
  8
0
 62
     0
100
AcDbLine
 10
2.898253919370564
 20
7.660618090679756
 30
0.0
 11
2.903557220229463
 21
7.665921391538655
 31
0.0
  0
LINE
  5
263
330
A6
100
AcDbEntity
  8
0
 62
     0
100
AcDbLine
 10
2.906208870658912
 20
7.668573041968104
 30
0.0
 11
2.911512171517811
 21
7.673876342827004
 31
0.0
  0
LINE
  5
264
330
A6
100
AcDbEntity
  8
0
 62
     0
100
AcDbLine
 10
2.914163821947261
 20
7.676527993256453
 30
0.0
 11
2.914178222026015
 21
7.676542393335207
 31
0.0
  0
LINE
  5
265
330
A6
100
AcDbEntity
  8
0
 62
     0
100
AcDbLine
 10
2.650519457961591
 20
7.434096832706384
 30
0.0
 11
2.654302079861203
 21
7.437879454605996
 31
0.0
  0
LINE
  5
266
330
A6
100
AcDbEntity
  8
0
 62
     0
100
AcDbLine
 10
2.656953730290653
 20
7.440531105035445
 30
0.0
 11
2.662257031149552
 21
7.445834405894344
 31
0.0
  0
LINE
  5
267
330
A6
100
AcDbEntity
  8
0
 62
     0
100
AcDbLine
 10
2.664908681579002
 20
7.448486056323793
 30
0.0
 11
2.670211982437901
 21
7.453789357182692
 31
0.0
  0
LINE
  5
268
330
A6
100
AcDbEntity
  8
0
 62
     0
100
AcDbLine
 10
2.67286363286735
 20
7.456441007612141
 30
0.0
 11
2.67816693372625
 21
7.461744308471041
 31
0.0
  0
LINE
  5
269
330
A6
100
AcDbEntity
  8
0
 62
     0
100
AcDbLine
 10
2.680818584155699
 20
7.46439595890049
 30
0.0
 11
2.686121885014598
 21
7.469699259759389
 31
0.0
  0
LINE
  5
26A
330
A6
100
AcDbEntity
  8
0
 62
     0
100
AcDbLine
 10
2.688773535444048
 20
7.472350910188838
 30
0.0
 11
2.694076836302947
 21
7.477654211047737
 31
0.0
  0
LINE
  5
26B
330
A6
100
AcDbEntity
  8
0
 62
     0
100
AcDbLine
 10
2.696728486732397
 20
7.480305861477186
 30
0.0
 11
2.699616474333643
 21
7.483193849078432
 31
0.0
  0
LINE
  5
26C
330
A6
100
AcDbEntity
  8
0
 62
     0
100
AcDbLine
 10
2.79218790219258
 20
7.575765276937373
 30
0.0
 11
2.79749120305148
 21
7.581068577796272
 31
0.0
  0
LINE
  5
26D
330
A6
100
AcDbEntity
  8
0
 62
     0
100
AcDbLine
 10
2.800142853480929
 20
7.583720228225721
 30
0.0
 11
2.805446154339828
 21
7.58902352908462
 31
0.0
  0
LINE
  5
26E
330
A6
100
AcDbEntity
  8
0
 62
     0
100
AcDbLine
 10
2.808097804769278
 20
7.591675179514069
 30
0.0
 11
2.813401105628177
 21
7.596978480372968
 31
0.0
  0
LINE
  5
26F
330
A6
100
AcDbEntity
  8
0
 62
     0
100
AcDbLine
 10
2.816052756057627
 20
7.599630130802418
 30
0.0
 11
2.821356056916526
 21
7.604933431661317
 31
0.0
  0
LINE
  5
270
330
A6
100
AcDbEntity
  8
0
 62
     0
100
AcDbLine
 10
2.824007707345975
 20
7.607585082090766
 30
0.0
 11
2.829311008204875
 21
7.612888382949665
 31
0.0
  0
LINE
  5
271
330
A6
100
AcDbEntity
  8
0
 62
     0
100
AcDbLine
 10
2.831962658634324
 20
7.615540033379114
 30
0.0
 11
2.837265959493223
 21
7.620843334238013
 31
0.0
  0
LINE
  5
272
330
A6
100
AcDbEntity
  8
0
 62
     0
100
AcDbLine
 10
2.839917609922673
 20
7.623494984667463
 30
0.0
 11
2.845220910781572
 21
7.628798285526362
 31
0.0
  0
LINE
  5
273
330
A6
100
AcDbEntity
  8
0
 62
     0
100
AcDbLine
 10
2.847872561211022
 20
7.631449935955811
 30
0.0
 11
2.853175862069921
 21
7.63675323681471
 31
0.0
  0
LINE
  5
274
330
A6
100
AcDbEntity
  8
0
 62
     0
100
AcDbLine
 10
2.85582751249937
 20
7.639404887244159
 30
0.0
 11
2.86113081335827
 21
7.644708188103058
 31
0.0
  0
LINE
  5
275
330
A6
100
AcDbEntity
  8
0
 62
     0
100
AcDbLine
 10
2.863782463787719
 20
7.647359838532508
 30
0.0
 11
2.869085764646619
 21
7.652663139391407
 31
0.0
  0
LINE
  5
276
330
A6
100
AcDbEntity
  8
0
 62
     0
100
AcDbLine
 10
2.871737415076068
 20
7.655314789820856
 30
0.0
 11
2.877040715934967
 21
7.660618090679755
 31
0.0
  0
LINE
  5
277
330
A6
100
AcDbEntity
  8
0
 62
     0
100
AcDbLine
 10
2.879692366364417
 20
7.663269741109204
 30
0.0
 11
2.884995667223316
 21
7.668573041968103
 31
0.0
  0
LINE
  5
278
330
A6
100
AcDbEntity
  8
0
 62
     0
100
AcDbLine
 10
2.887647317652766
 20
7.671224692397553
 30
0.0
 11
2.892950618511665
 21
7.676527993256452
 31
0.0
  0
LINE
  5
279
330
A6
100
AcDbEntity
  8
0
 62
     0
100
AcDbLine
 10
2.650519457961591
 20
7.455310036141979
 30
0.0
 11
2.651650429431754
 21
7.456441007612142
 31
0.0
  0
LINE
  5
27A
330
A6
100
AcDbEntity
  8
0
 62
     0
100
AcDbLine
 10
2.654302079861203
 20
7.459092658041591
 30
0.0
 11
2.659605380720102
 21
7.464395958900491
 31
0.0
  0
LINE
  5
27B
330
A6
100
AcDbEntity
  8
0
 62
     0
100
AcDbLine
 10
2.662257031149552
 20
7.46704760932994
 30
0.0
 11
2.667560332008451
 21
7.472350910188839
 31
0.0
  0
LINE
  5
27C
330
A6
100
AcDbEntity
  8
0
 62
     0
100
AcDbLine
 10
2.670211982437901
 20
7.475002560618288
 30
0.0
 11
2.6755152832968
 21
7.480305861477187
 31
0.0
  0
LINE
  5
27D
330
A6
100
AcDbEntity
  8
0
 62
     0
100
AcDbLine
 10
2.67816693372625
 20
7.482957511906636
 30
0.0
 11
2.683470234585149
 21
7.488260812765536
 31
0.0
  0
LINE
  5
27E
330
A6
100
AcDbEntity
  8
0
 62
     0
100
AcDbLine
 10
2.686121885014598
 20
7.490912463194985
 30
0.0
 11
2.691425185873498
 21
7.496215764053884
 31
0.0
  0
LINE
  5
27F
330
A6
100
AcDbEntity
  8
0
 62
     0
100
AcDbLine
 10
2.694076836302947
 20
7.498867414483333
 30
0.0
 11
2.699380137161846
 21
7.504170715342232
 31
0.0
  0
LINE
  5
280
330
A6
100
AcDbEntity
  8
0
 62
     0
100
AcDbLine
 10
2.702031787591296
 20
7.506822365771681
 30
0.0
 11
2.707335088450195
 21
7.512125666630581
 31
0.0
  0
LINE
  5
281
330
A6
100
AcDbEntity
  8
0
 62
     0
100
AcDbLine
 10
2.734069888541912
 20
7.538860466722301
 30
0.0
 11
2.739154893603589
 21
7.543945471783978
 31
0.0
  0
LINE
  5
282
330
A6
100
AcDbEntity
  8
0
 62
     0
100
AcDbLine
 10
2.741806544033039
 20
7.546597122213427
 30
0.0
 11
2.747109844891938
 21
7.551900423072326
 31
0.0
  0
LINE
  5
283
330
A6
100
AcDbEntity
  8
0
 62
     0
100
AcDbLine
 10
2.749761495321388
 20
7.554552073501775
 30
0.0
 11
2.755064796180287
 21
7.559855374360674
 31
0.0
  0
LINE
  5
284
330
A6
100
AcDbEntity
  8
0
 62
     0
100
AcDbLine
 10
2.757716446609737
 20
7.562507024790123
 30
0.0
 11
2.763019747468636
 21
7.567810325649023
 31
0.0
  0
LINE
  5
285
330
A6
100
AcDbEntity
  8
0
 62
     0
100
AcDbLine
 10
2.765671397898085
 20
7.570461976078472
 30
0.0
 11
2.770974698756984
 21
7.575765276937371
 31
0.0
  0
LINE
  5
286
330
A6
100
AcDbEntity
  8
0
 62
     0
100
AcDbLine
 10
2.773626349186434
 20
7.57841692736682
 30
0.0
 11
2.778929650045333
 21
7.583720228225719
 31
0.0
  0
LINE
  5
287
330
A6
100
AcDbEntity
  8
0
 62
     0
100
AcDbLine
 10
2.781581300474783
 20
7.586371878655168
 30
0.0
 11
2.786884601333682
 21
7.591675179514068
 31
0.0
  0
LINE
  5
288
330
A6
100
AcDbEntity
  8
0
 62
     0
100
AcDbLine
 10
2.789536251763132
 20
7.594326829943517
 30
0.0
 11
2.794839552622031
 21
7.599630130802416
 31
0.0
  0
LINE
  5
289
330
A6
100
AcDbEntity
  8
0
 62
     0
100
AcDbLine
 10
2.79749120305148
 20
7.602281781231865
 30
0.0
 11
2.80279450391038
 21
7.607585082090764
 31
0.0
  0
LINE
  5
28A
330
A6
100
AcDbEntity
  8
0
 62
     0
100
AcDbLine
 10
2.805446154339829
 20
7.610236732520213
 30
0.0
 11
2.810749455198728
 21
7.615540033379113
 31
0.0
  0
LINE
  5
28B
330
A6
100
AcDbEntity
  8
0
 62
     0
100
AcDbLine
 10
2.813401105628178
 20
7.618191683808562
 30
0.0
 11
2.818704406487077
 21
7.623494984667461
 31
0.0
  0
LINE
  5
28C
330
A6
100
AcDbEntity
  8
0
 62
     0
100
AcDbLine
 10
2.821356056916527
 20
7.62614663509691
 30
0.0
 11
2.826659357775426
 21
7.631449935955809
 31
0.0
  0
LINE
  5
28D
330
A6
100
AcDbEntity
  8
0
 62
     0
100
AcDbLine
 10
2.829311008204875
 20
7.634101586385258
 30
0.0
 11
2.834614309063775
 21
7.639404887244158
 31
0.0
  0
LINE
  5
28E
330
A6
100
AcDbEntity
  8
0
 62
     0
100
AcDbLine
 10
2.837265959493224
 20
7.642056537673607
 30
0.0
 11
2.842569260352123
 21
7.647359838532506
 31
0.0
  0
LINE
  5
28F
330
A6
100
AcDbEntity
  8
0
 62
     0
100
AcDbLine
 10
2.845220910781573
 20
7.650011488961955
 30
0.0
 11
2.850524211640472
 21
7.655314789820854
 31
0.0
  0
LINE
  5
290
330
A6
100
AcDbEntity
  8
0
 62
     0
100
AcDbLine
 10
2.853175862069922
 20
7.657966440250303
 30
0.0
 11
2.858479162928821
 21
7.663269741109203
 31
0.0
  0
LINE
  5
291
330
A6
100
AcDbEntity
  8
0
 62
     0
100
AcDbLine
 10
2.861130813358271
 20
7.665921391538652
 30
0.0
 11
2.86643411421717
 21
7.671224692397551
 31
0.0
  0
LINE
  5
292
330
A6
100
AcDbEntity
  8
0
 62
     0
100
AcDbLine
 10
2.869085764646619
 20
7.673876342827
 30
0.0
 11
2.871751815154823
 21
7.676542393335203
 31
0.0
  0
LINE
  5
293
330
A6
100
AcDbEntity
  8
0
 62
     0
100
AcDbLine
 10
2.651650429431754
 20
7.477654211047739
 30
0.0
 11
2.656953730290653
 21
7.482957511906638
 31
0.0
  0
LINE
  5
294
330
A6
100
AcDbEntity
  8
0
 62
     0
100
AcDbLine
 10
2.659605380720103
 20
7.485609162336087
 30
0.0
 11
2.664908681579002
 21
7.490912463194987
 31
0.0
  0
LINE
  5
295
330
A6
100
AcDbEntity
  8
0
 62
     0
100
AcDbLine
 10
2.667560332008452
 20
7.493564113624436
 30
0.0
 11
2.672863632867351
 21
7.498867414483335
 31
0.0
  0
LINE
  5
296
330
A6
100
AcDbEntity
  8
0
 62
     0
100
AcDbLine
 10
2.6755152832968
 20
7.501519064912784
 30
0.0
 11
2.6808185841557
 21
7.506822365771683
 31
0.0
  0
LINE
  5
297
330
A6
100
AcDbEntity
  8
0
 62
     0
100
AcDbLine
 10
2.683470234585149
 20
7.509474016201132
 30
0.0
 11
2.688773535444048
 21
7.514777317060032
 31
0.0
  0
LINE
  5
298
330
A6
100
AcDbEntity
  8
0
 62
     0
100
AcDbLine
 10
2.691425185873498
 20
7.517428967489481
 30
0.0
 11
2.696728486732397
 21
7.52273226834838
 31
0.0
  0
LINE
  5
299
330
A6
100
AcDbEntity
  8
0
 62
     0
100
AcDbLine
 10
2.699380137161847
 20
7.525383918777829
 30
0.0
 11
2.704683438020746
 21
7.530687219636728
 31
0.0
  0
LINE
  5
29A
330
A6
100
AcDbEntity
  8
0
 62
     0
100
AcDbLine
 10
2.707335088450196
 20
7.533338870066177
 30
0.0
 11
2.712638389309095
 21
7.538642170925077
 31
0.0
  0
LINE
  5
29B
330
A6
100
AcDbEntity
  8
0
 62
     0
100
AcDbLine
 10
2.715290039738544
 20
7.541293821354526
 30
0.0
 11
2.720593340597444
 21
7.546597122213425
 31
0.0
  0
LINE
  5
29C
330
A6
100
AcDbEntity
  8
0
 62
     0
100
AcDbLine
 10
2.723244991026893
 20
7.549248772642874
 30
0.0
 11
2.728548291885792
 21
7.554552073501773
 31
0.0
  0
LINE
  5
29D
330
A6
100
AcDbEntity
  8
0
 62
     0
100
AcDbLine
 10
2.731199942315242
 20
7.557203723931222
 30
0.0
 11
2.736503243174141
 21
7.562507024790122
 31
0.0
  0
LINE
  5
29E
330
A6
100
AcDbEntity
  8
0
 62
     0
100
AcDbLine
 10
2.739154893603591
 20
7.565158675219571
 30
0.0
 11
2.74445819446249
 21
7.57046197607847
 31
0.0
  0
LINE
  5
29F
330
A6
100
AcDbEntity
  8
0
 62
     0
100
AcDbLine
 10
2.747109844891939
 20
7.573113626507919
 30
0.0
 11
2.752413145750839
 21
7.578416927366818
 31
0.0
  0
LINE
  5
2A0
330
A6
100
AcDbEntity
  8
0
 62
     0
100
AcDbLine
 10
2.755064796180288
 20
7.581068577796267
 30
0.0
 11
2.760368097039187
 21
7.586371878655167
 31
0.0
  0
LINE
  5
2A1
330
A6
100
AcDbEntity
  8
0
 62
     0
100
AcDbLine
 10
2.763019747468637
 20
7.589023529084616
 30
0.0
 11
2.768323048327536
 21
7.594326829943515
 31
0.0
  0
LINE
  5
2A2
330
A6
100
AcDbEntity
  8
0
 62
     0
100
AcDbLine
 10
2.770974698756986
 20
7.596978480372964
 30
0.0
 11
2.776277999615885
 21
7.602281781231863
 31
0.0
  0
LINE
  5
2A3
330
A6
100
AcDbEntity
  8
0
 62
     0
100
AcDbLine
 10
2.778929650045335
 20
7.604933431661312
 30
0.0
 11
2.784232950904234
 21
7.610236732520212
 31
0.0
  0
LINE
  5
2A4
330
A6
100
AcDbEntity
  8
0
 62
     0
100
AcDbLine
 10
2.786884601333683
 20
7.612888382949661
 30
0.0
 11
2.792187902192583
 21
7.61819168380856
 31
0.0
  0
LINE
  5
2A5
330
A6
100
AcDbEntity
  8
0
 62
     0
100
AcDbLine
 10
2.794839552622032
 20
7.620843334238009
 30
0.0
 11
2.800142853480931
 21
7.626146635096908
 31
0.0
  0
LINE
  5
2A6
330
A6
100
AcDbEntity
  8
0
 62
     0
100
AcDbLine
 10
2.802794503910381
 20
7.628798285526357
 30
0.0
 11
2.80809780476928
 21
7.634101586385257
 31
0.0
  0
LINE
  5
2A7
330
A6
100
AcDbEntity
  8
0
 62
     0
100
AcDbLine
 10
2.81074945519873
 20
7.636753236814706
 30
0.0
 11
2.816052756057629
 21
7.642056537673605
 31
0.0
  0
LINE
  5
2A8
330
A6
100
AcDbEntity
  8
0
 62
     0
100
AcDbLine
 10
2.818704406487078
 20
7.644708188103054
 30
0.0
 11
2.824007707345978
 21
7.650011488961953
 31
0.0
  0
LINE
  5
2A9
330
A6
100
AcDbEntity
  8
0
 62
     0
100
AcDbLine
 10
2.826659357775427
 20
7.652663139391402
 30
0.0
 11
2.831962658634326
 21
7.657966440250302
 31
0.0
  0
LINE
  5
2AA
330
A6
100
AcDbEntity
  8
0
 62
     0
100
AcDbLine
 10
2.834614309063776
 20
7.660618090679751
 30
0.0
 11
2.839917609922675
 21
7.66592139153865
 31
0.0
  0
LINE
  5
2AB
330
A6
100
AcDbEntity
  8
0
 62
     0
100
AcDbLine
 10
2.842569260352125
 20
7.668573041968099
 30
0.0
 11
2.847872561211024
 21
7.673876342826998
 31
0.0
  0
LINE
  5
2AC
330
A6
100
AcDbEntity
  8
0
 62
     0
100
AcDbLine
 10
2.850524211640474
 20
7.676527993256447
 30
0.0
 11
2.850538611719228
 21
7.676542393335202
 31
0.0
  0
LINE
  5
2AD
330
A6
100
AcDbEntity
  8
0
 62
     0
100
AcDbLine
 10
2.650519457961591
 20
7.497736443013173
 30
0.0
 11
2.654302079861203
 21
7.501519064912785
 31
0.0
  0
LINE
  5
2AE
330
A6
100
AcDbEntity
  8
0
 62
     0
100
AcDbLine
 10
2.656953730290653
 20
7.504170715342234
 30
0.0
 11
2.662257031149552
 21
7.509474016201133
 31
0.0
  0
LINE
  5
2AF
330
A6
100
AcDbEntity
  8
0
 62
     0
100
AcDbLine
 10
2.664908681579002
 20
7.512125666630582
 30
0.0
 11
2.670211982437901
 21
7.517428967489482
 31
0.0
  0
LINE
  5
2B0
330
A6
100
AcDbEntity
  8
0
 62
     0
100
AcDbLine
 10
2.67286363286735
 20
7.520080617918931
 30
0.0
 11
2.67816693372625
 21
7.52538391877783
 31
0.0
  0
LINE
  5
2B1
330
A6
100
AcDbEntity
  8
0
 62
     0
100
AcDbLine
 10
2.680818584155699
 20
7.528035569207279
 30
0.0
 11
2.686121885014598
 21
7.533338870066178
 31
0.0
  0
LINE
  5
2B2
330
A6
100
AcDbEntity
  8
0
 62
     0
100
AcDbLine
 10
2.688773535444048
 20
7.535990520495627
 30
0.0
 11
2.694076836302947
 21
7.541293821354527
 31
0.0
  0
LINE
  5
2B3
330
A6
100
AcDbEntity
  8
0
 62
     0
100
AcDbLine
 10
2.696728486732397
 20
7.543945471783976
 30
0.0
 11
2.702031787591296
 21
7.549248772642875
 31
0.0
  0
LINE
  5
2B4
330
A6
100
AcDbEntity
  8
0
 62
     0
100
AcDbLine
 10
2.704683438020746
 20
7.551900423072324
 30
0.0
 11
2.709986738879645
 21
7.557203723931223
 31
0.0
  0
LINE
  5
2B5
330
A6
100
AcDbEntity
  8
0
 62
     0
100
AcDbLine
 10
2.712638389309094
 20
7.559855374360672
 30
0.0
 11
2.717941690167994
 21
7.565158675219572
 31
0.0
  0
LINE
  5
2B6
330
A6
100
AcDbEntity
  8
0
 62
     0
100
AcDbLine
 10
2.720593340597443
 20
7.567810325649021
 30
0.0
 11
2.725896641456342
 21
7.57311362650792
 31
0.0
  0
LINE
  5
2B7
330
A6
100
AcDbEntity
  8
0
 62
     0
100
AcDbLine
 10
2.728548291885792
 20
7.575765276937369
 30
0.0
 11
2.733851592744691
 21
7.581068577796268
 31
0.0
  0
LINE
  5
2B8
330
A6
100
AcDbEntity
  8
0
 62
     0
100
AcDbLine
 10
2.736503243174141
 20
7.583720228225717
 30
0.0
 11
2.74180654403304
 21
7.589023529084617
 31
0.0
  0
LINE
  5
2B9
330
A6
100
AcDbEntity
  8
0
 62
     0
100
AcDbLine
 10
2.744458194462489
 20
7.591675179514066
 30
0.0
 11
2.749761495321389
 21
7.596978480372965
 31
0.0
  0
LINE
  5
2BA
330
A6
100
AcDbEntity
  8
0
 62
     0
100
AcDbLine
 10
2.752413145750838
 20
7.599630130802414
 30
0.0
 11
2.757716446609737
 21
7.604933431661313
 31
0.0
  0
LINE
  5
2BB
330
A6
100
AcDbEntity
  8
0
 62
     0
100
AcDbLine
 10
2.760368097039187
 20
7.607585082090762
 30
0.0
 11
2.765671397898086
 21
7.612888382949662
 31
0.0
  0
LINE
  5
2BC
330
A6
100
AcDbEntity
  8
0
 62
     0
100
AcDbLine
 10
2.768323048327536
 20
7.615540033379111
 30
0.0
 11
2.773626349186435
 21
7.62084333423801
 31
0.0
  0
LINE
  5
2BD
330
A6
100
AcDbEntity
  8
0
 62
     0
100
AcDbLine
 10
2.776277999615885
 20
7.623494984667459
 30
0.0
 11
2.781581300474784
 21
7.628798285526358
 31
0.0
  0
LINE
  5
2BE
330
A6
100
AcDbEntity
  8
0
 62
     0
100
AcDbLine
 10
2.784232950904233
 20
7.631449935955807
 30
0.0
 11
2.789536251763133
 21
7.636753236814707
 31
0.0
  0
LINE
  5
2BF
330
A6
100
AcDbEntity
  8
0
 62
     0
100
AcDbLine
 10
2.792187902192582
 20
7.639404887244156
 30
0.0
 11
2.797491203051481
 21
7.644708188103055
 31
0.0
  0
LINE
  5
2C0
330
A6
100
AcDbEntity
  8
0
 62
     0
100
AcDbLine
 10
2.800142853480931
 20
7.647359838532504
 30
0.0
 11
2.80544615433983
 21
7.652663139391403
 31
0.0
  0
LINE
  5
2C1
330
A6
100
AcDbEntity
  8
0
 62
     0
100
AcDbLine
 10
2.80809780476928
 20
7.655314789820852
 30
0.0
 11
2.813401105628179
 21
7.660618090679752
 31
0.0
  0
LINE
  5
2C2
330
A6
100
AcDbEntity
  8
0
 62
     0
100
AcDbLine
 10
2.816052756057628
 20
7.663269741109201
 30
0.0
 11
2.821356056916528
 21
7.6685730419681
 31
0.0
  0
LINE
  5
2C3
330
A6
100
AcDbEntity
  8
0
 62
     0
100
AcDbLine
 10
2.824007707345977
 20
7.671224692397549
 30
0.0
 11
2.829311008204876
 21
7.676527993256448
 31
0.0
  0
LINE
  5
2C4
330
A6
100
AcDbEntity
  8
0
 62
     0
100
AcDbLine
 10
2.650519457961591
 20
7.518949646448769
 30
0.0
 11
2.651650429431754
 21
7.520080617918932
 31
0.0
  0
LINE
  5
2C5
330
A6
100
AcDbEntity
  8
0
 62
     0
100
AcDbLine
 10
2.654302079861203
 20
7.522732268348381
 30
0.0
 11
2.659605380720102
 21
7.52803556920728
 31
0.0
  0
LINE
  5
2C6
330
A6
100
AcDbEntity
  8
0
 62
     0
100
AcDbLine
 10
2.662257031149552
 20
7.530687219636729
 30
0.0
 11
2.667560332008451
 21
7.535990520495628
 31
0.0
  0
LINE
  5
2C7
330
A6
100
AcDbEntity
  8
0
 62
     0
100
AcDbLine
 10
2.670211982437901
 20
7.538642170925077
 30
0.0
 11
2.6755152832968
 21
7.543945471783977
 31
0.0
  0
LINE
  5
2C8
330
A6
100
AcDbEntity
  8
0
 62
     0
100
AcDbLine
 10
2.67816693372625
 20
7.546597122213426
 30
0.0
 11
2.683470234585149
 21
7.551900423072325
 31
0.0
  0
LINE
  5
2C9
330
A6
100
AcDbEntity
  8
0
 62
     0
100
AcDbLine
 10
2.686121885014598
 20
7.554552073501774
 30
0.0
 11
2.691425185873498
 21
7.559855374360673
 31
0.0
  0
LINE
  5
2CA
330
A6
100
AcDbEntity
  8
0
 62
     0
100
AcDbLine
 10
2.694076836302947
 20
7.562507024790122
 30
0.0
 11
2.699380137161846
 21
7.567810325649022
 31
0.0
  0
LINE
  5
2CB
330
A6
100
AcDbEntity
  8
0
 62
     0
100
AcDbLine
 10
2.702031787591296
 20
7.570461976078471
 30
0.0
 11
2.707335088450195
 21
7.57576527693737
 31
0.0
  0
LINE
  5
2CC
330
A6
100
AcDbEntity
  8
0
 62
     0
100
AcDbLine
 10
2.709986738879645
 20
7.578416927366819
 30
0.0
 11
2.715290039738544
 21
7.583720228225718
 31
0.0
  0
LINE
  5
2CD
330
A6
100
AcDbEntity
  8
0
 62
     0
100
AcDbLine
 10
2.717941690167994
 20
7.586371878655167
 30
0.0
 11
2.723244991026893
 21
7.591675179514067
 31
0.0
  0
LINE
  5
2CE
330
A6
100
AcDbEntity
  8
0
 62
     0
100
AcDbLine
 10
2.725896641456342
 20
7.594326829943516
 30
0.0
 11
2.731199942315241
 21
7.599630130802415
 31
0.0
  0
LINE
  5
2CF
330
A6
100
AcDbEntity
  8
0
 62
     0
100
AcDbLine
 10
2.733851592744691
 20
7.602281781231864
 30
0.0
 11
2.73915489360359
 21
7.607585082090763
 31
0.0
  0
LINE
  5
2D0
330
A6
100
AcDbEntity
  8
0
 62
     0
100
AcDbLine
 10
2.74180654403304
 20
7.610236732520212
 30
0.0
 11
2.747109844891939
 21
7.615540033379112
 31
0.0
  0
LINE
  5
2D1
330
A6
100
AcDbEntity
  8
0
 62
     0
100
AcDbLine
 10
2.749761495321389
 20
7.618191683808561
 30
0.0
 11
2.755064796180288
 21
7.62349498466746
 31
0.0
  0
LINE
  5
2D2
330
A6
100
AcDbEntity
  8
0
 62
     0
100
AcDbLine
 10
2.757716446609737
 20
7.626146635096909
 30
0.0
 11
2.763019747468637
 21
7.631449935955808
 31
0.0
  0
LINE
  5
2D3
330
A6
100
AcDbEntity
  8
0
 62
     0
100
AcDbLine
 10
2.765671397898086
 20
7.634101586385257
 30
0.0
 11
2.770974698756985
 21
7.639404887244157
 31
0.0
  0
LINE
  5
2D4
330
A6
100
AcDbEntity
  8
0
 62
     0
100
AcDbLine
 10
2.773626349186435
 20
7.642056537673606
 30
0.0
 11
2.778929650045334
 21
7.647359838532505
 31
0.0
  0
LINE
  5
2D5
330
A6
100
AcDbEntity
  8
0
 62
     0
100
AcDbLine
 10
2.781581300474784
 20
7.650011488961954
 30
0.0
 11
2.786884601333683
 21
7.655314789820853
 31
0.0
  0
LINE
  5
2D6
330
A6
100
AcDbEntity
  8
0
 62
     0
100
AcDbLine
 10
2.789536251763133
 20
7.657966440250302
 30
0.0
 11
2.794839552622032
 21
7.663269741109202
 31
0.0
  0
LINE
  5
2D7
330
A6
100
AcDbEntity
  8
0
 62
     0
100
AcDbLine
 10
2.797491203051481
 20
7.665921391538651
 30
0.0
 11
2.80279450391038
 21
7.67122469239755
 31
0.0
  0
LINE
  5
2D8
330
A6
100
AcDbEntity
  8
0
 62
     0
100
AcDbLine
 10
2.80544615433983
 20
7.673876342826999
 30
0.0
 11
2.808112204848034
 21
7.676542393335203
 31
0.0
  0
LINE
  5
2D9
330
A6
100
AcDbEntity
  8
0
 62
     0
100
AcDbLine
 10
2.651650429431754
 20
7.541293821354528
 30
0.0
 11
2.656953730290653
 21
7.546597122213428
 31
0.0
  0
LINE
  5
2DA
330
A6
100
AcDbEntity
  8
0
 62
     0
100
AcDbLine
 10
2.659605380720103
 20
7.549248772642877
 30
0.0
 11
2.664908681579002
 21
7.554552073501776
 31
0.0
  0
LINE
  5
2DB
330
A6
100
AcDbEntity
  8
0
 62
     0
100
AcDbLine
 10
2.667560332008452
 20
7.557203723931225
 30
0.0
 11
2.672863632867351
 21
7.562507024790124
 31
0.0
  0
LINE
  5
2DC
330
A6
100
AcDbEntity
  8
0
 62
     0
100
AcDbLine
 10
2.6755152832968
 20
7.565158675219573
 30
0.0
 11
2.6808185841557
 21
7.570461976078473
 31
0.0
  0
LINE
  5
2DD
330
A6
100
AcDbEntity
  8
0
 62
     0
100
AcDbLine
 10
2.683470234585149
 20
7.573113626507922
 30
0.0
 11
2.688773535444048
 21
7.578416927366821
 31
0.0
  0
LINE
  5
2DE
330
A6
100
AcDbEntity
  8
0
 62
     0
100
AcDbLine
 10
2.691425185873498
 20
7.58106857779627
 30
0.0
 11
2.696728486732397
 21
7.586371878655169
 31
0.0
  0
LINE
  5
2DF
330
A6
100
AcDbEntity
  8
0
 62
     0
100
AcDbLine
 10
2.699380137161847
 20
7.589023529084618
 30
0.0
 11
2.704683438020746
 21
7.594326829943518
 31
0.0
  0
LINE
  5
2E0
330
A6
100
AcDbEntity
  8
0
 62
     0
100
AcDbLine
 10
2.707335088450196
 20
7.596978480372967
 30
0.0
 11
2.712638389309095
 21
7.602281781231866
 31
0.0
  0
LINE
  5
2E1
330
A6
100
AcDbEntity
  8
0
 62
     0
100
AcDbLine
 10
2.715290039738544
 20
7.604933431661315
 30
0.0
 11
2.720593340597444
 21
7.610236732520214
 31
0.0
  0
LINE
  5
2E2
330
A6
100
AcDbEntity
  8
0
 62
     0
100
AcDbLine
 10
2.723244991026893
 20
7.612888382949663
 30
0.0
 11
2.728548291885792
 21
7.618191683808563
 31
0.0
  0
LINE
  5
2E3
330
A6
100
AcDbEntity
  8
0
 62
     0
100
AcDbLine
 10
2.731199942315242
 20
7.620843334238012
 30
0.0
 11
2.736503243174141
 21
7.626146635096911
 31
0.0
  0
LINE
  5
2E4
330
A6
100
AcDbEntity
  8
0
 62
     0
100
AcDbLine
 10
2.739154893603591
 20
7.62879828552636
 30
0.0
 11
2.74445819446249
 21
7.634101586385259
 31
0.0
  0
LINE
  5
2E5
330
A6
100
AcDbEntity
  8
0
 62
     0
100
AcDbLine
 10
2.747109844891939
 20
7.636753236814708
 30
0.0
 11
2.752413145750839
 21
7.642056537673608
 31
0.0
  0
LINE
  5
2E6
330
A6
100
AcDbEntity
  8
0
 62
     0
100
AcDbLine
 10
2.755064796180288
 20
7.644708188103057
 30
0.0
 11
2.760368097039187
 21
7.650011488961956
 31
0.0
  0
LINE
  5
2E7
330
A6
100
AcDbEntity
  8
0
 62
     0
100
AcDbLine
 10
2.763019747468637
 20
7.652663139391405
 30
0.0
 11
2.768323048327536
 21
7.657966440250304
 31
0.0
  0
LINE
  5
2E8
330
A6
100
AcDbEntity
  8
0
 62
     0
100
AcDbLine
 10
2.770974698756986
 20
7.660618090679753
 30
0.0
 11
2.776277999615885
 21
7.665921391538653
 31
0.0
  0
LINE
  5
2E9
330
A6
100
AcDbEntity
  8
0
 62
     0
100
AcDbLine
 10
2.778929650045335
 20
7.668573041968102
 30
0.0
 11
2.784232950904234
 21
7.673876342827001
 31
0.0
  0
LINE
  5
2EA
330
A6
100
AcDbEntity
  8
0
 62
     0
100
AcDbLine
 10
2.786884601333683
 20
7.67652799325645
 30
0.0
 11
2.786899001412438
 21
7.676542393335204
 31
0.0
  0
LINE
  5
2EB
330
A6
100
AcDbEntity
  8
0
 62
     0
100
AcDbLine
 10
2.650519457961591
 20
7.561376053319961
 30
0.0
 11
2.654302079861203
 21
7.565158675219573
 31
0.0
  0
LINE
  5
2EC
330
A6
100
AcDbEntity
  8
0
 62
     0
100
AcDbLine
 10
2.656953730290653
 20
7.567810325649023
 30
0.0
 11
2.662257031149552
 21
7.573113626507922
 31
0.0
  0
LINE
  5
2ED
330
A6
100
AcDbEntity
  8
0
 62
     0
100
AcDbLine
 10
2.664908681579002
 20
7.575765276937371
 30
0.0
 11
2.670211982437901
 21
7.58106857779627
 31
0.0
  0
LINE
  5
2EE
330
A6
100
AcDbEntity
  8
0
 62
     0
100
AcDbLine
 10
2.67286363286735
 20
7.583720228225719
 30
0.0
 11
2.67816693372625
 21
7.589023529084618
 31
0.0
  0
LINE
  5
2EF
330
A6
100
AcDbEntity
  8
0
 62
     0
100
AcDbLine
 10
2.680818584155699
 20
7.591675179514068
 30
0.0
 11
2.686121885014598
 21
7.596978480372967
 31
0.0
  0
LINE
  5
2F0
330
A6
100
AcDbEntity
  8
0
 62
     0
100
AcDbLine
 10
2.688773535444048
 20
7.599630130802416
 30
0.0
 11
2.694076836302947
 21
7.604933431661315
 31
0.0
  0
LINE
  5
2F1
330
A6
100
AcDbEntity
  8
0
 62
     0
100
AcDbLine
 10
2.696728486732397
 20
7.607585082090764
 30
0.0
 11
2.702031787591296
 21
7.612888382949663
 31
0.0
  0
LINE
  5
2F2
330
A6
100
AcDbEntity
  8
0
 62
     0
100
AcDbLine
 10
2.704683438020746
 20
7.615540033379113
 30
0.0
 11
2.709986738879645
 21
7.620843334238012
 31
0.0
  0
LINE
  5
2F3
330
A6
100
AcDbEntity
  8
0
 62
     0
100
AcDbLine
 10
2.712638389309094
 20
7.623494984667461
 30
0.0
 11
2.717941690167994
 21
7.62879828552636
 31
0.0
  0
LINE
  5
2F4
330
A6
100
AcDbEntity
  8
0
 62
     0
100
AcDbLine
 10
2.720593340597443
 20
7.631449935955809
 30
0.0
 11
2.725896641456342
 21
7.636753236814708
 31
0.0
  0
LINE
  5
2F5
330
A6
100
AcDbEntity
  8
0
 62
     0
100
AcDbLine
 10
2.728548291885792
 20
7.639404887244158
 30
0.0
 11
2.733851592744691
 21
7.644708188103057
 31
0.0
  0
LINE
  5
2F6
330
A6
100
AcDbEntity
  8
0
 62
     0
100
AcDbLine
 10
2.736503243174141
 20
7.647359838532506
 30
0.0
 11
2.74180654403304
 21
7.652663139391405
 31
0.0
  0
LINE
  5
2F7
330
A6
100
AcDbEntity
  8
0
 62
     0
100
AcDbLine
 10
2.744458194462489
 20
7.655314789820854
 30
0.0
 11
2.749761495321389
 21
7.660618090679753
 31
0.0
  0
LINE
  5
2F8
330
A6
100
AcDbEntity
  8
0
 62
     0
100
AcDbLine
 10
2.752413145750838
 20
7.663269741109203
 30
0.0
 11
2.757716446609737
 21
7.668573041968102
 31
0.0
  0
LINE
  5
2F9
330
A6
100
AcDbEntity
  8
0
 62
     0
100
AcDbLine
 10
2.760368097039187
 20
7.671224692397551
 30
0.0
 11
2.765671397898086
 21
7.67652799325645
 31
0.0
  0
LINE
  5
2FA
330
A6
100
AcDbEntity
  8
0
 62
     0
100
AcDbLine
 10
2.650519457961591
 20
7.582589256755558
 30
0.0
 11
2.651650429431754
 21
7.583720228225721
 31
0.0
  0
LINE
  5
2FB
330
A6
100
AcDbEntity
  8
0
 62
     0
100
AcDbLine
 10
2.654302079861203
 20
7.58637187865517
 30
0.0
 11
2.659605380720102
 21
7.591675179514069
 31
0.0
  0
LINE
  5
2FC
330
A6
100
AcDbEntity
  8
0
 62
     0
100
AcDbLine
 10
2.662257031149552
 20
7.594326829943518
 30
0.0
 11
2.667560332008451
 21
7.599630130802418
 31
0.0
  0
LINE
  5
2FD
330
A6
100
AcDbEntity
  8
0
 62
     0
100
AcDbLine
 10
2.670211982437901
 20
7.602281781231867
 30
0.0
 11
2.6755152832968
 21
7.607585082090766
 31
0.0
  0
LINE
  5
2FE
330
A6
100
AcDbEntity
  8
0
 62
     0
100
AcDbLine
 10
2.67816693372625
 20
7.610236732520215
 30
0.0
 11
2.683470234585149
 21
7.615540033379114
 31
0.0
  0
LINE
  5
2FF
330
A6
100
AcDbEntity
  8
0
 62
     0
100
AcDbLine
 10
2.686121885014598
 20
7.618191683808563
 30
0.0
 11
2.691425185873498
 21
7.623494984667463
 31
0.0
  0
LINE
  5
300
330
A6
100
AcDbEntity
  8
0
 62
     0
100
AcDbLine
 10
2.694076836302947
 20
7.626146635096912
 30
0.0
 11
2.699380137161846
 21
7.631449935955811
 31
0.0
  0
LINE
  5
301
330
A6
100
AcDbEntity
  8
0
 62
     0
100
AcDbLine
 10
2.702031787591296
 20
7.63410158638526
 30
0.0
 11
2.707335088450195
 21
7.639404887244159
 31
0.0
  0
LINE
  5
302
330
A6
100
AcDbEntity
  8
0
 62
     0
100
AcDbLine
 10
2.709986738879645
 20
7.642056537673608
 30
0.0
 11
2.715290039738544
 21
7.647359838532508
 31
0.0
  0
LINE
  5
303
330
A6
100
AcDbEntity
  8
0
 62
     0
100
AcDbLine
 10
2.717941690167994
 20
7.650011488961957
 30
0.0
 11
2.723244991026893
 21
7.655314789820856
 31
0.0
  0
LINE
  5
304
330
A6
100
AcDbEntity
  8
0
 62
     0
100
AcDbLine
 10
2.725896641456342
 20
7.657966440250305
 30
0.0
 11
2.731199942315241
 21
7.663269741109204
 31
0.0
  0
LINE
  5
305
330
A6
100
AcDbEntity
  8
0
 62
     0
100
AcDbLine
 10
2.733851592744691
 20
7.665921391538653
 30
0.0
 11
2.73915489360359
 21
7.671224692397553
 31
0.0
  0
LINE
  5
306
330
A6
100
AcDbEntity
  8
0
 62
     0
100
AcDbLine
 10
2.74180654403304
 20
7.673876342827002
 30
0.0
 11
2.744472594541243
 21
7.676542393335205
 31
0.0
  0
LINE
  5
307
330
A6
100
AcDbEntity
  8
0
 62
     0
100
AcDbLine
 10
2.651650429431754
 20
7.604933431661318
 30
0.0
 11
2.656953730290653
 21
7.610236732520217
 31
0.0
  0
LINE
  5
308
330
A6
100
AcDbEntity
  8
0
 62
     0
100
AcDbLine
 10
2.659605380720103
 20
7.612888382949666
 30
0.0
 11
2.664908681579002
 21
7.618191683808565
 31
0.0
  0
LINE
  5
309
330
A6
100
AcDbEntity
  8
0
 62
     0
100
AcDbLine
 10
2.667560332008452
 20
7.620843334238014
 30
0.0
 11
2.672863632867351
 21
7.626146635096914
 31
0.0
  0
LINE
  5
30A
330
A6
100
AcDbEntity
  8
0
 62
     0
100
AcDbLine
 10
2.6755152832968
 20
7.628798285526363
 30
0.0
 11
2.6808185841557
 21
7.634101586385262
 31
0.0
  0
LINE
  5
30B
330
A6
100
AcDbEntity
  8
0
 62
     0
100
AcDbLine
 10
2.683470234585149
 20
7.636753236814711
 30
0.0
 11
2.688773535444048
 21
7.64205653767361
 31
0.0
  0
LINE
  5
30C
330
A6
100
AcDbEntity
  8
0
 62
     0
100
AcDbLine
 10
2.691425185873498
 20
7.644708188103059
 30
0.0
 11
2.696728486732397
 21
7.650011488961959
 31
0.0
  0
LINE
  5
30D
330
A6
100
AcDbEntity
  8
0
 62
     0
100
AcDbLine
 10
2.699380137161847
 20
7.652663139391408
 30
0.0
 11
2.704683438020746
 21
7.657966440250307
 31
0.0
  0
LINE
  5
30E
330
A6
100
AcDbEntity
  8
0
 62
     0
100
AcDbLine
 10
2.707335088450196
 20
7.660618090679756
 30
0.0
 11
2.712638389309095
 21
7.665921391538655
 31
0.0
  0
LINE
  5
30F
330
A6
100
AcDbEntity
  8
0
 62
     0
100
AcDbLine
 10
2.715290039738544
 20
7.668573041968104
 30
0.0
 11
2.720593340597444
 21
7.673876342827004
 31
0.0
  0
LINE
  5
310
330
A6
100
AcDbEntity
  8
0
 62
     0
100
AcDbLine
 10
2.723244991026893
 20
7.676527993256453
 30
0.0
 11
2.723259391105647
 21
7.676542393335206
 31
0.0
  0
LINE
  5
311
330
A6
100
AcDbEntity
  8
0
 62
     0
100
AcDbLine
 10
2.650519457961591
 20
7.625015663626751
 30
0.0
 11
2.654302079861203
 21
7.628798285526363
 31
0.0
  0
LINE
  5
312
330
A6
100
AcDbEntity
  8
0
 62
     0
100
AcDbLine
 10
2.656953730290653
 20
7.631449935955812
 30
0.0
 11
2.662257031149552
 21
7.636753236814711
 31
0.0
  0
LINE
  5
313
330
A6
100
AcDbEntity
  8
0
 62
     0
100
AcDbLine
 10
2.664908681579002
 20
7.63940488724416
 30
0.0
 11
2.670211982437901
 21
7.644708188103059
 31
0.0
  0
LINE
  5
314
330
A6
100
AcDbEntity
  8
0
 62
     0
100
AcDbLine
 10
2.67286363286735
 20
7.647359838532509
 30
0.0
 11
2.67816693372625
 21
7.652663139391408
 31
0.0
  0
LINE
  5
315
330
A6
100
AcDbEntity
  8
0
 62
     0
100
AcDbLine
 10
2.680818584155699
 20
7.655314789820857
 30
0.0
 11
2.686121885014598
 21
7.660618090679756
 31
0.0
  0
LINE
  5
316
330
A6
100
AcDbEntity
  8
0
 62
     0
100
AcDbLine
 10
2.688773535444048
 20
7.663269741109205
 30
0.0
 11
2.694076836302947
 21
7.668573041968104
 31
0.0
  0
LINE
  5
317
330
A6
100
AcDbEntity
  8
0
 62
     0
100
AcDbLine
 10
2.696728486732397
 20
7.671224692397554
 30
0.0
 11
2.702031787591296
 21
7.676527993256453
 31
0.0
  0
LINE
  5
318
330
A6
100
AcDbEntity
  8
0
 62
     0
100
AcDbLine
 10
2.659392730765385
 20
7.655102139866142
 30
0.0
 11
2.659605380720102
 21
7.655314789820859
 31
0.0
  0
LINE
  5
319
330
A6
100
AcDbEntity
  8
0
 62
     0
100
AcDbLine
 10
2.662257031149552
 20
7.657966440250309
 30
0.0
 11
2.667560332008451
 21
7.663269741109208
 31
0.0
  0
LINE
  5
31A
330
A6
100
AcDbEntity
  8
0
 62
     0
100
AcDbLine
 10
2.6702119824379
 20
7.665921391538657
 30
0.0
 11
2.671959711430659
 21
7.667669120531415
 31
0.0
  0
LINE
  5
31B
330
A6
100
AcDbEntity
  8
0
 62
     0
100
AcDbLine
 10
2.924948061120355
 20
7.284261367153219
 30
0.0
 11
2.930073724523957
 21
7.289387030556821
 31
0.0
  0
LINE
  5
31C
330
A6
100
AcDbEntity
  8
0
 62
     0
100
AcDbLine
 10
2.932725374953407
 20
7.29203868098627
 30
0.0
 11
2.938028675812306
 21
7.297341981845169
 31
0.0
  0
LINE
  5
31D
330
A6
100
AcDbEntity
  8
0
 62
     0
100
AcDbLine
 10
2.940680326241756
 20
7.299993632274619
 30
0.0
 11
2.945983627100655
 21
7.305296933133518
 31
0.0
  0
LINE
  5
31E
330
A6
100
AcDbEntity
  8
0
 62
     0
100
AcDbLine
 10
2.948635277530105
 20
7.307948583562967
 30
0.0
 11
2.953938578389004
 21
7.313251884421866
 31
0.0
  0
LINE
  5
31F
330
A6
100
AcDbEntity
  8
0
 62
     0
100
AcDbLine
 10
2.956590228818453
 20
7.315903534851315
 30
0.0
 11
2.961893529677352
 21
7.321206835710214
 31
0.0
  0
LINE
  5
320
330
A6
100
AcDbEntity
  8
0
 62
     0
100
AcDbLine
 10
2.964545180106802
 20
7.323858486139664
 30
0.0
 11
2.969848480965701
 21
7.329161786998563
 31
0.0
  0
LINE
  5
321
330
A6
100
AcDbEntity
  8
0
 62
     0
100
AcDbLine
 10
2.972500131395151
 20
7.331813437428012
 30
0.0
 11
2.97780343225405
 21
7.337116738286911
 31
0.0
  0
LINE
  5
322
330
A6
100
AcDbEntity
  8
0
 62
     0
100
AcDbLine
 10
3.255463880491052
 20
7.614777186523916
 30
0.0
 11
3.256226727346252
 21
7.615540033379116
 31
0.0
  0
LINE
  5
323
330
A6
100
AcDbEntity
  8
0
 62
     0
100
AcDbLine
 10
3.258878377775701
 20
7.618191683808565
 30
0.0
 11
3.264181678634601
 21
7.623494984667464
 31
0.0
  0
LINE
  5
324
330
A6
100
AcDbEntity
  8
0
 62
     0
100
AcDbLine
 10
3.26683332906405
 20
7.626146635096914
 30
0.0
 11
3.272136629922949
 21
7.631449935955813
 31
0.0
  0
LINE
  5
325
330
A6
100
AcDbEntity
  8
0
 62
     0
100
AcDbLine
 10
3.274788280352399
 20
7.634101586385262
 30
0.0
 11
3.280091581211298
 21
7.639404887244161
 31
0.0
  0
LINE
  5
326
330
A6
100
AcDbEntity
  8
0
 62
     0
100
AcDbLine
 10
3.282743231640748
 20
7.64205653767361
 30
0.0
 11
3.288046532499647
 21
7.647359838532509
 31
0.0
  0
LINE
  5
327
330
A6
100
AcDbEntity
  8
0
 62
     0
100
AcDbLine
 10
3.290698182929097
 20
7.650011488961959
 30
0.0
 11
3.296001483787996
 21
7.655314789820858
 31
0.0
  0
LINE
  5
328
330
A6
100
AcDbEntity
  8
0
 62
     0
100
AcDbLine
 10
3.298653134217445
 20
7.657966440250307
 30
0.0
 11
3.303956435076345
 21
7.663269741109206
 31
0.0
  0
LINE
  5
329
330
A6
100
AcDbEntity
  8
0
 62
     0
100
AcDbLine
 10
3.306608085505794
 20
7.665921391538655
 30
0.0
 11
3.311911386364693
 21
7.671224692397554
 31
0.0
  0
LINE
  5
32A
330
A6
100
AcDbEntity
  8
0
 62
     0
100
AcDbLine
 10
3.314563036794143
 20
7.673876342827004
 30
0.0
 11
3.317229087302347
 21
7.676542393335207
 31
0.0
  0
LINE
  5
32B
330
A6
100
AcDbEntity
  8
0
 62
     0
100
AcDbLine
 10
2.946161264555952
 20
7.284261367153219
 30
0.0
 11
2.948635277530104
 21
7.286735380127371
 31
0.0
  0
LINE
  5
32C
330
A6
100
AcDbEntity
  8
0
 62
     0
100
AcDbLine
 10
2.951286927959553
 20
7.28938703055682
 30
0.0
 11
2.956590228818452
 21
7.294690331415719
 31
0.0
  0
LINE
  5
32D
330
A6
100
AcDbEntity
  8
0
 62
     0
100
AcDbLine
 10
2.959241879247902
 20
7.297341981845169
 30
0.0
 11
2.964545180106801
 21
7.302645282704068
 31
0.0
  0
LINE
  5
32E
330
A6
100
AcDbEntity
  8
0
 62
     0
100
AcDbLine
 10
2.967196830536251
 20
7.305296933133517
 30
0.0
 11
2.97250013139515
 21
7.310600233992416
 31
0.0
  0
LINE
  5
32F
330
A6
100
AcDbEntity
  8
0
 62
     0
100
AcDbLine
 10
2.9751517818246
 20
7.313251884421865
 30
0.0
 11
2.980455082683499
 21
7.318555185280764
 31
0.0
  0
LINE
  5
330
330
A6
100
AcDbEntity
  8
0
 62
     0
100
AcDbLine
 10
2.983106733112948
 20
7.321206835710214
 30
0.0
 11
2.988410033971847
 21
7.326510136569113
 31
0.0
  0
LINE
  5
331
330
A6
100
AcDbEntity
  8
0
 62
     0
100
AcDbLine
 10
2.991061684401297
 20
7.329161786998562
 30
0.0
 11
2.996364985260196
 21
7.334465087857461
 31
0.0
  0
LINE
  5
332
330
A6
100
AcDbEntity
  8
0
 62
     0
100
AcDbLine
 10
2.999016635689646
 20
7.33711673828691
 30
0.0
 11
2.999131827536494
 21
7.337231930133759
 31
0.0
  0
LINE
  5
333
330
A6
100
AcDbEntity
  8
0
 62
     0
100
AcDbLine
 10
3.273481296120058
 20
7.611581398717325
 30
0.0
 11
3.274788280352399
 21
7.612888382949667
 31
0.0
  0
LINE
  5
334
330
A6
100
AcDbEntity
  8
0
 62
     0
100
AcDbLine
 10
3.277439930781849
 20
7.615540033379116
 30
0.0
 11
3.282743231640748
 21
7.620843334238015
 31
0.0
  0
LINE
  5
335
330
A6
100
AcDbEntity
  8
0
 62
     0
100
AcDbLine
 10
3.285394882070197
 20
7.623494984667464
 30
0.0
 11
3.290698182929097
 21
7.628798285526364
 31
0.0
  0
LINE
  5
336
330
A6
100
AcDbEntity
  8
0
 62
     0
100
AcDbLine
 10
3.293349833358546
 20
7.631449935955813
 30
0.0
 11
3.298653134217445
 21
7.636753236814712
 31
0.0
  0
LINE
  5
337
330
A6
100
AcDbEntity
  8
0
 62
     0
100
AcDbLine
 10
3.301304784646895
 20
7.639404887244161
 30
0.0
 11
3.306608085505794
 21
7.64470818810306
 31
0.0
  0
LINE
  5
338
330
A6
100
AcDbEntity
  8
0
 62
     0
100
AcDbLine
 10
3.309259735935244
 20
7.647359838532509
 30
0.0
 11
3.314563036794143
 21
7.652663139391409
 31
0.0
  0
LINE
  5
339
330
A6
100
AcDbEntity
  8
0
 62
     0
100
AcDbLine
 10
3.317214687223593
 20
7.655314789820858
 30
0.0
 11
3.322517988082492
 21
7.660618090679757
 31
0.0
  0
LINE
  5
33A
330
A6
100
AcDbEntity
  8
0
 62
     0
100
AcDbLine
 10
3.325169638511941
 20
7.663269741109206
 30
0.0
 11
3.33047293937084
 21
7.668573041968105
 31
0.0
  0
LINE
  5
33B
330
A6
100
AcDbEntity
  8
0
 62
     0
100
AcDbLine
 10
3.33312458980029
 20
7.671224692397554
 30
0.0
 11
3.338427890659189
 21
7.676527993256454
 31
0.0
  0
LINE
  5
33C
330
A6
100
AcDbEntity
  8
0
 62
     0
100
AcDbLine
 10
2.9698484809657
 20
7.286735380127371
 30
0.0
 11
2.9751517818246
 21
7.29203868098627
 31
0.0
  0
LINE
  5
33D
330
A6
100
AcDbEntity
  8
0
 62
     0
100
AcDbLine
 10
2.977803432254049
 20
7.294690331415719
 30
0.0
 11
2.983106733112948
 21
7.299993632274619
 31
0.0
  0
LINE
  5
33E
330
A6
100
AcDbEntity
  8
0
 62
     0
100
AcDbLine
 10
2.985758383542398
 20
7.302645282704068
 30
0.0
 11
2.991061684401297
 21
7.307948583562967
 31
0.0
  0
LINE
  5
33F
330
A6
100
AcDbEntity
  8
0
 62
     0
100
AcDbLine
 10
2.993713334830747
 20
7.310600233992416
 30
0.0
 11
2.999016635689646
 21
7.315903534851315
 31
0.0
  0
LINE
  5
340
330
A6
100
AcDbEntity
  8
0
 62
     0
100
AcDbLine
 10
3.001668286119095
 20
7.318555185280764
 30
0.0
 11
3.006971586977995
 21
7.323858486139664
 31
0.0
  0
LINE
  5
341
330
A6
100
AcDbEntity
  8
0
 62
     0
100
AcDbLine
 10
3.009623237407444
 20
7.326510136569113
 30
0.0
 11
3.014926538266343
 21
7.331813437428012
 31
0.0
  0
LINE
  5
342
330
A6
100
AcDbEntity
  8
0
 62
     0
100
AcDbLine
 10
3.017578188695793
 20
7.334465087857461
 30
0.0
 11
3.01877827418972
 21
7.335665173351388
 31
0.0
  0
LINE
  5
343
330
A6
100
AcDbEntity
  8
0
 62
     0
100
AcDbLine
 10
3.291025842528459
 20
7.607912741690131
 30
0.0
 11
3.293349833358545
 21
7.610236732520217
 31
0.0
  0
LINE
  5
344
330
A6
100
AcDbEntity
  8
0
 62
     0
100
AcDbLine
 10
3.296001483787994
 20
7.612888382949666
 30
0.0
 11
3.301304784646894
 21
7.618191683808565
 31
0.0
  0
LINE
  5
345
330
A6
100
AcDbEntity
  8
0
 62
     0
100
AcDbLine
 10
3.303956435076343
 20
7.620843334238014
 30
0.0
 11
3.309259735935242
 21
7.626146635096914
 31
0.0
  0
LINE
  5
346
330
A6
100
AcDbEntity
  8
0
 62
     0
100
AcDbLine
 10
3.311911386364692
 20
7.628798285526363
 30
0.0
 11
3.317214687223591
 21
7.634101586385262
 31
0.0
  0
LINE
  5
347
330
A6
100
AcDbEntity
  8
0
 62
     0
100
AcDbLine
 10
3.319866337653041
 20
7.636753236814711
 30
0.0
 11
3.32516963851194
 21
7.64205653767361
 31
0.0
  0
LINE
  5
348
330
A6
100
AcDbEntity
  8
0
 62
     0
100
AcDbLine
 10
3.32782128894139
 20
7.644708188103059
 30
0.0
 11
3.333124589800289
 21
7.650011488961959
 31
0.0
  0
LINE
  5
349
330
A6
100
AcDbEntity
  8
0
 62
     0
100
AcDbLine
 10
3.335776240229738
 20
7.652663139391408
 30
0.0
 11
3.341079541088638
 21
7.657966440250307
 31
0.0
  0
LINE
  5
34A
330
A6
100
AcDbEntity
  8
0
 62
     0
100
AcDbLine
 10
3.343731191518087
 20
7.660618090679756
 30
0.0
 11
3.349034492376986
 21
7.665921391538655
 31
0.0
  0
LINE
  5
34B
330
A6
100
AcDbEntity
  8
0
 62
     0
100
AcDbLine
 10
3.351686142806436
 20
7.668573041968104
 30
0.0
 11
3.356989443665335
 21
7.673876342827004
 31
0.0
  0
LINE
  5
34C
330
A6
100
AcDbEntity
  8
0
 62
     0
100
AcDbLine
 10
3.359641094094785
 20
7.676527993256453
 30
0.0
 11
3.359655494173539
 21
7.676542393335207
 31
0.0
  0
LINE
  5
34D
330
A6
100
AcDbEntity
  8
0
 62
     0
100
AcDbLine
 10
2.988587671427145
 20
7.284261367153219
 30
0.0
 11
2.993713334830746
 21
7.28938703055682
 31
0.0
  0
LINE
  5
34E
330
A6
100
AcDbEntity
  8
0
 62
     0
100
AcDbLine
 10
2.996364985260196
 20
7.292038680986269
 30
0.0
 11
3.001668286119095
 21
7.297341981845169
 31
0.0
  0
LINE
  5
34F
330
A6
100
AcDbEntity
  8
0
 62
     0
100
AcDbLine
 10
3.004319936548545
 20
7.299993632274618
 30
0.0
 11
3.009623237407444
 21
7.305296933133517
 31
0.0
  0
LINE
  5
350
330
A6
100
AcDbEntity
  8
0
 62
     0
100
AcDbLine
 10
3.012274887836893
 20
7.307948583562966
 30
0.0
 11
3.017578188695793
 21
7.313251884421865
 31
0.0
  0
LINE
  5
351
330
A6
100
AcDbEntity
  8
0
 62
     0
100
AcDbLine
 10
3.020229839125242
 20
7.315903534851314
 30
0.0
 11
3.025533139984141
 21
7.321206835710214
 31
0.0
  0
LINE
  5
352
330
A6
100
AcDbEntity
  8
0
 62
     0
100
AcDbLine
 10
3.028184790413591
 20
7.323858486139663
 30
0.0
 11
3.03348809127249
 21
7.329161786998562
 31
0.0
  0
LINE
  5
353
330
A6
100
AcDbEntity
  8
0
 62
     0
100
AcDbLine
 10
3.03613974170194
 20
7.331813437428011
 30
0.0
 11
3.038779558088078
 21
7.33445325381415
 31
0.0
  0
LINE
  5
354
330
A6
100
AcDbEntity
  8
0
 62
     0
100
AcDbLine
 10
3.308124836909577
 20
7.603798532635652
 30
0.0
 11
3.311911386364692
 21
7.607585082090767
 31
0.0
  0
LINE
  5
355
330
A6
100
AcDbEntity
  8
0
 62
     0
100
AcDbLine
 10
3.314563036794142
 20
7.610236732520216
 30
0.0
 11
3.319866337653041
 21
7.615540033379115
 31
0.0
  0
LINE
  5
356
330
A6
100
AcDbEntity
  8
0
 62
     0
100
AcDbLine
 10
3.322517988082491
 20
7.618191683808564
 30
0.0
 11
3.32782128894139
 21
7.623494984667464
 31
0.0
  0
LINE
  5
357
330
A6
100
AcDbEntity
  8
0
 62
     0
100
AcDbLine
 10
3.33047293937084
 20
7.626146635096913
 30
0.0
 11
3.335776240229739
 21
7.631449935955812
 31
0.0
  0
LINE
  5
358
330
A6
100
AcDbEntity
  8
0
 62
     0
100
AcDbLine
 10
3.338427890659188
 20
7.634101586385261
 30
0.0
 11
3.343731191518088
 21
7.63940488724416
 31
0.0
  0
LINE
  5
359
330
A6
100
AcDbEntity
  8
0
 62
     0
100
AcDbLine
 10
3.346382841947537
 20
7.642056537673609
 30
0.0
 11
3.351686142806436
 21
7.647359838532509
 31
0.0
  0
LINE
  5
35A
330
A6
100
AcDbEntity
  8
0
 62
     0
100
AcDbLine
 10
3.354337793235886
 20
7.650011488961958
 30
0.0
 11
3.359641094094785
 21
7.655314789820857
 31
0.0
  0
LINE
  5
35B
330
A6
100
AcDbEntity
  8
0
 62
     0
100
AcDbLine
 10
3.362292744524235
 20
7.657966440250306
 30
0.0
 11
3.367596045383134
 21
7.663269741109205
 31
0.0
  0
LINE
  5
35C
330
A6
100
AcDbEntity
  8
0
 62
     0
100
AcDbLine
 10
3.370247695812583
 20
7.665921391538654
 30
0.0
 11
3.375550996671483
 21
7.671224692397554
 31
0.0
  0
LINE
  5
35D
330
A6
100
AcDbEntity
  8
0
 62
     0
100
AcDbLine
 10
3.378202647100932
 20
7.673876342827003
 30
0.0
 11
3.380868697609136
 21
7.676542393335206
 31
0.0
  0
LINE
  5
35E
330
A6
100
AcDbEntity
  8
0
 62
     0
100
AcDbLine
 10
3.009800874862742
 20
7.284261367153219
 30
0.0
 11
3.012274887836893
 21
7.286735380127371
 31
0.0
  0
LINE
  5
35F
330
A6
100
AcDbEntity
  8
0
 62
     0
100
AcDbLine
 10
3.014926538266343
 20
7.28938703055682
 30
0.0
 11
3.020229839125242
 21
7.294690331415719
 31
0.0
  0
LINE
  5
360
330
A6
100
AcDbEntity
  8
0
 62
     0
100
AcDbLine
 10
3.022881489554692
 20
7.297341981845169
 30
0.0
 11
3.028184790413591
 21
7.302645282704068
 31
0.0
  0
LINE
  5
361
330
A6
100
AcDbEntity
  8
0
 62
     0
100
AcDbLine
 10
3.030836440843041
 20
7.305296933133517
 30
0.0
 11
3.03613974170194
 21
7.310600233992416
 31
0.0
  0
LINE
  5
362
330
A6
100
AcDbEntity
  8
0
 62
     0
100
AcDbLine
 10
3.038791392131389
 20
7.313251884421865
 30
0.0
 11
3.044094692990289
 21
7.318555185280764
 31
0.0
  0
LINE
  5
363
330
A6
100
AcDbEntity
  8
0
 62
     0
100
AcDbLine
 10
3.046746343419738
 20
7.321206835710214
 30
0.0
 11
3.052049644278637
 21
7.326510136569113
 31
0.0
  0
LINE
  5
364
330
A6
100
AcDbEntity
  8
0
 62
     0
100
AcDbLine
 10
3.054701294708087
 20
7.329161786998562
 30
0.0
 11
3.059154288396534
 21
7.333614780687009
 31
0.0
  0
LINE
  5
365
330
A6
100
AcDbEntity
  8
0
 62
     0
100
AcDbLine
 10
3.325169638511941
 20
7.599630130802419
 30
0.0
 11
3.33047293937084
 21
7.604933431661318
 31
0.0
  0
LINE
  5
366
330
A6
100
AcDbEntity
  8
0
 62
     0
100
AcDbLine
 10
3.33312458980029
 20
7.607585082090767
 30
0.0
 11
3.338427890659189
 21
7.612888382949666
 31
0.0
  0
LINE
  5
367
330
A6
100
AcDbEntity
  8
0
 62
     0
100
AcDbLine
 10
3.341079541088638
 20
7.615540033379115
 30
0.0
 11
3.346382841947538
 21
7.620843334238014
 31
0.0
  0
LINE
  5
368
330
A6
100
AcDbEntity
  8
0
 62
     0
100
AcDbLine
 10
3.349034492376987
 20
7.623494984667464
 30
0.0
 11
3.354337793235886
 21
7.628798285526363
 31
0.0
  0
LINE
  5
369
330
A6
100
AcDbEntity
  8
0
 62
     0
100
AcDbLine
 10
3.356989443665336
 20
7.631449935955812
 30
0.0
 11
3.362292744524235
 21
7.636753236814711
 31
0.0
  0
LINE
  5
36A
330
A6
100
AcDbEntity
  8
0
 62
     0
100
AcDbLine
 10
3.364944394953685
 20
7.63940488724416
 30
0.0
 11
3.370247695812584
 21
7.644708188103059
 31
0.0
  0
LINE
  5
36B
330
A6
100
AcDbEntity
  8
0
 62
     0
100
AcDbLine
 10
3.372899346242034
 20
7.647359838532509
 30
0.0
 11
3.378202647100933
 21
7.652663139391408
 31
0.0
  0
LINE
  5
36C
330
A6
100
AcDbEntity
  8
0
 62
     0
100
AcDbLine
 10
3.380854297530382
 20
7.655314789820857
 30
0.0
 11
3.386157598389281
 21
7.660618090679756
 31
0.0
  0
LINE
  5
36D
330
A6
100
AcDbEntity
  8
0
 62
     0
100
AcDbLine
 10
3.388809248818731
 20
7.663269741109205
 30
0.0
 11
3.39411254967763
 21
7.668573041968104
 31
0.0
  0
LINE
  5
36E
330
A6
100
AcDbEntity
  8
0
 62
     0
100
AcDbLine
 10
3.39676420010708
 20
7.671224692397554
 30
0.0
 11
3.402067500965979
 21
7.676527993256453
 31
0.0
  0
LINE
  5
36F
330
A6
100
AcDbEntity
  8
0
 62
     0
100
AcDbLine
 10
3.03348809127249
 20
7.286735380127371
 30
0.0
 11
3.038791392131389
 21
7.29203868098627
 31
0.0
  0
LINE
  5
370
330
A6
100
AcDbEntity
  8
0
 62
     0
100
AcDbLine
 10
3.041443042560838
 20
7.294690331415719
 30
0.0
 11
3.046746343419738
 21
7.299993632274619
 31
0.0
  0
LINE
  5
371
330
A6
100
AcDbEntity
  8
0
 62
     0
100
AcDbLine
 10
3.049397993849187
 20
7.302645282704068
 30
0.0
 11
3.054701294708086
 21
7.307948583562967
 31
0.0
  0
LINE
  5
372
330
A6
100
AcDbEntity
  8
0
 62
     0
100
AcDbLine
 10
3.057352945137536
 20
7.310600233992416
 30
0.0
 11
3.062656245996435
 21
7.315903534851315
 31
0.0
  0
LINE
  5
373
330
A6
100
AcDbEntity
  8
0
 62
     0
100
AcDbLine
 10
3.065307896425885
 20
7.318555185280764
 30
0.0
 11
3.070611197284784
 21
7.323858486139664
 31
0.0
  0
LINE
  5
374
330
A6
100
AcDbEntity
  8
0
 62
     0
100
AcDbLine
 10
3.073262847714234
 20
7.326510136569113
 30
0.0
 11
3.078566148573133
 21
7.331813437428012
 31
0.0
  0
LINE
  5
375
330
A6
100
AcDbEntity
  8
0
 62
     0
100
AcDbLine
 10
3.341077881100279
 20
7.594325169955161
 30
0.0
 11
3.341079541088638
 21
7.594326829943519
 31
0.0
  0
LINE
  5
376
330
A6
100
AcDbEntity
  8
0
 62
     0
100
AcDbLine
 10
3.343731191518087
 20
7.596978480372968
 30
0.0
 11
3.349034492376986
 21
7.602281781231868
 31
0.0
  0
LINE
  5
377
330
A6
100
AcDbEntity
  8
0
 62
     0
100
AcDbLine
 10
3.351686142806436
 20
7.604933431661317
 30
0.0
 11
3.356989443665335
 21
7.610236732520216
 31
0.0
  0
LINE
  5
378
330
A6
100
AcDbEntity
  8
0
 62
     0
100
AcDbLine
 10
3.359641094094785
 20
7.612888382949665
 30
0.0
 11
3.364944394953684
 21
7.618191683808564
 31
0.0
  0
LINE
  5
379
330
A6
100
AcDbEntity
  8
0
 62
     0
100
AcDbLine
 10
3.367596045383133
 20
7.620843334238013
 30
0.0
 11
3.372899346242033
 21
7.626146635096913
 31
0.0
  0
LINE
  5
37A
330
A6
100
AcDbEntity
  8
0
 62
     0
100
AcDbLine
 10
3.375550996671482
 20
7.628798285526362
 30
0.0
 11
3.380854297530381
 21
7.634101586385261
 31
0.0
  0
LINE
  5
37B
330
A6
100
AcDbEntity
  8
0
 62
     0
100
AcDbLine
 10
3.383505947959831
 20
7.63675323681471
 30
0.0
 11
3.38880924881873
 21
7.642056537673609
 31
0.0
  0
LINE
  5
37C
330
A6
100
AcDbEntity
  8
0
 62
     0
100
AcDbLine
 10
3.39146089924818
 20
7.644708188103058
 30
0.0
 11
3.396764200107079
 21
7.650011488961958
 31
0.0
  0
LINE
  5
37D
330
A6
100
AcDbEntity
  8
0
 62
     0
100
AcDbLine
 10
3.399415850536529
 20
7.652663139391407
 30
0.0
 11
3.404719151395428
 21
7.657966440250306
 31
0.0
  0
LINE
  5
37E
330
A6
100
AcDbEntity
  8
0
 62
     0
100
AcDbLine
 10
3.407370801824877
 20
7.660618090679755
 30
0.0
 11
3.412674102683777
 21
7.665921391538654
 31
0.0
  0
LINE
  5
37F
330
A6
100
AcDbEntity
  8
0
 62
     0
100
AcDbLine
 10
3.415325753113226
 20
7.668573041968103
 30
0.0
 11
3.420629053972125
 21
7.673876342827003
 31
0.0
  0
LINE
  5
380
330
A6
100
AcDbEntity
  8
0
 62
     0
100
AcDbLine
 10
3.423280704401575
 20
7.676527993256452
 30
0.0
 11
3.423295104480329
 21
7.676542393335206
 31
0.0
  0
LINE
  5
381
330
A6
100
AcDbEntity
  8
0
 62
     0
100
AcDbLine
 10
3.052227281733934
 20
7.284261367153219
 30
0.0
 11
3.057352945137536
 21
7.28938703055682
 31
0.0
  0
LINE
  5
382
330
A6
100
AcDbEntity
  8
0
 62
     0
100
AcDbLine
 10
3.060004595566985
 20
7.292038680986269
 30
0.0
 11
3.065307896425884
 21
7.297341981845169
 31
0.0
  0
LINE
  5
383
330
A6
100
AcDbEntity
  8
0
 62
     0
100
AcDbLine
 10
3.067959546855334
 20
7.299993632274618
 30
0.0
 11
3.073262847714233
 21
7.305296933133517
 31
0.0
  0
LINE
  5
384
330
A6
100
AcDbEntity
  8
0
 62
     0
100
AcDbLine
 10
3.075914498143683
 20
7.307948583562966
 30
0.0
 11
3.081217799002582
 21
7.313251884421865
 31
0.0
  0
LINE
  5
385
330
A6
100
AcDbEntity
  8
0
 62
     0
100
AcDbLine
 10
3.083869449432032
 20
7.315903534851314
 30
0.0
 11
3.089172750290931
 21
7.321206835710214
 31
0.0
  0
LINE
  5
386
330
A6
100
AcDbEntity
  8
0
 62
     0
100
AcDbLine
 10
3.09182440072038
 20
7.323858486139663
 30
0.0
 11
3.097127701579279
 21
7.329161786998562
 31
0.0
  0
LINE
  5
387
330
A6
100
AcDbEntity
  8
0
 62
     0
100
AcDbLine
 10
3.099779352008729
 20
7.331813437428011
 30
0.0
 11
3.101109617084376
 21
7.333143702503658
 31
0.0
  0
LINE
  5
388
330
A6
100
AcDbEntity
  8
0
 62
     0
100
AcDbLine
 10
3.356970666387196
 20
7.589004751806482
 30
0.0
 11
3.359641094094785
 21
7.59167517951407
 31
0.0
  0
LINE
  5
389
330
A6
100
AcDbEntity
  8
0
 62
     0
100
AcDbLine
 10
3.362292744524234
 20
7.594326829943519
 30
0.0
 11
3.367596045383133
 21
7.599630130802419
 31
0.0
  0
LINE
  5
38A
330
A6
100
AcDbEntity
  8
0
 62
     0
100
AcDbLine
 10
3.370247695812583
 20
7.602281781231868
 30
0.0
 11
3.375550996671482
 21
7.607585082090767
 31
0.0
  0
LINE
  5
38B
330
A6
100
AcDbEntity
  8
0
 62
     0
100
AcDbLine
 10
3.378202647100932
 20
7.610236732520216
 30
0.0
 11
3.383505947959831
 21
7.615540033379115
 31
0.0
  0
LINE
  5
38C
330
A6
100
AcDbEntity
  8
0
 62
     0
100
AcDbLine
 10
3.386157598389281
 20
7.618191683808564
 30
0.0
 11
3.39146089924818
 21
7.623494984667464
 31
0.0
  0
LINE
  5
38D
330
A6
100
AcDbEntity
  8
0
 62
     0
100
AcDbLine
 10
3.394112549677629
 20
7.626146635096913
 30
0.0
 11
3.399415850536529
 21
7.631449935955812
 31
0.0
  0
LINE
  5
38E
330
A6
100
AcDbEntity
  8
0
 62
     0
100
AcDbLine
 10
3.402067500965978
 20
7.634101586385261
 30
0.0
 11
3.407370801824877
 21
7.63940488724416
 31
0.0
  0
LINE
  5
38F
330
A6
100
AcDbEntity
  8
0
 62
     0
100
AcDbLine
 10
3.410022452254327
 20
7.642056537673609
 30
0.0
 11
3.415325753113226
 21
7.647359838532509
 31
0.0
  0
LINE
  5
390
330
A6
100
AcDbEntity
  8
0
 62
     0
100
AcDbLine
 10
3.417977403542676
 20
7.650011488961958
 30
0.0
 11
3.423280704401575
 21
7.655314789820857
 31
0.0
  0
LINE
  5
391
330
A6
100
AcDbEntity
  8
0
 62
     0
100
AcDbLine
 10
3.425932354831024
 20
7.657966440250306
 30
0.0
 11
3.431235655689924
 21
7.663269741109205
 31
0.0
  0
LINE
  5
392
330
A6
100
AcDbEntity
  8
0
 62
     0
100
AcDbLine
 10
3.433887306119373
 20
7.665921391538654
 30
0.0
 11
3.439190606978272
 21
7.671224692397554
 31
0.0
  0
LINE
  5
393
330
A6
100
AcDbEntity
  8
0
 62
     0
100
AcDbLine
 10
3.441842257407722
 20
7.673876342827003
 30
0.0
 11
3.444508307915926
 21
7.676542393335206
 31
0.0
  0
LINE
  5
394
330
A6
100
AcDbEntity
  8
0
 62
     0
100
AcDbLine
 10
3.07344048516953
 20
7.284261367153219
 30
0.0
 11
3.075914498143682
 21
7.286735380127371
 31
0.0
  0
LINE
  5
395
330
A6
100
AcDbEntity
  8
0
 62
     0
100
AcDbLine
 10
3.078566148573132
 20
7.28938703055682
 30
0.0
 11
3.083869449432031
 21
7.294690331415719
 31
0.0
  0
LINE
  5
396
330
A6
100
AcDbEntity
  8
0
 62
     0
100
AcDbLine
 10
3.086521099861481
 20
7.297341981845169
 30
0.0
 11
3.09182440072038
 21
7.302645282704068
 31
0.0
  0
LINE
  5
397
330
A6
100
AcDbEntity
  8
0
 62
     0
100
AcDbLine
 10
3.094476051149829
 20
7.305296933133517
 30
0.0
 11
3.099779352008729
 21
7.310600233992416
 31
0.0
  0
LINE
  5
398
330
A6
100
AcDbEntity
  8
0
 62
     0
100
AcDbLine
 10
3.102431002438178
 20
7.313251884421865
 30
0.0
 11
3.107734303297077
 21
7.318555185280764
 31
0.0
  0
LINE
  5
399
330
A6
100
AcDbEntity
  8
0
 62
     0
100
AcDbLine
 10
3.110385953726527
 20
7.321206835710214
 30
0.0
 11
3.115689254585426
 21
7.326510136569113
 31
0.0
  0
LINE
  5
39A
330
A6
100
AcDbEntity
  8
0
 62
     0
100
AcDbLine
 10
3.118340905014876
 20
7.329161786998562
 30
0.0
 11
3.122739680083262
 21
7.333560562066947
 31
0.0
  0
LINE
  5
39B
330
A6
100
AcDbEntity
  8
0
 62
     0
100
AcDbLine
 10
3.372899346242032
 20
7.583720228225721
 30
0.0
 11
3.378202647100931
 21
7.58902352908462
 31
0.0
  0
LINE
  5
39C
330
A6
100
AcDbEntity
  8
0
 62
     0
100
AcDbLine
 10
3.380854297530381
 20
7.591675179514069
 30
0.0
 11
3.38615759838928
 21
7.596978480372968
 31
0.0
  0
LINE
  5
39D
330
A6
100
AcDbEntity
  8
0
 62
     0
100
AcDbLine
 10
3.38880924881873
 20
7.599630130802418
 30
0.0
 11
3.394112549677629
 21
7.604933431661317
 31
0.0
  0
LINE
  5
39E
330
A6
100
AcDbEntity
  8
0
 62
     0
100
AcDbLine
 10
3.396764200107079
 20
7.607585082090766
 30
0.0
 11
3.402067500965978
 21
7.612888382949665
 31
0.0
  0
LINE
  5
39F
330
A6
100
AcDbEntity
  8
0
 62
     0
100
AcDbLine
 10
3.404719151395427
 20
7.615540033379114
 30
0.0
 11
3.410022452254326
 21
7.620843334238013
 31
0.0
  0
LINE
  5
3A0
330
A6
100
AcDbEntity
  8
0
 62
     0
100
AcDbLine
 10
3.412674102683776
 20
7.623494984667463
 30
0.0
 11
3.417977403542675
 21
7.628798285526362
 31
0.0
  0
LINE
  5
3A1
330
A6
100
AcDbEntity
  8
0
 62
     0
100
AcDbLine
 10
3.420629053972125
 20
7.631449935955811
 30
0.0
 11
3.425932354831024
 21
7.63675323681471
 31
0.0
  0
LINE
  5
3A2
330
A6
100
AcDbEntity
  8
0
 62
     0
100
AcDbLine
 10
3.428584005260474
 20
7.639404887244159
 30
0.0
 11
3.433887306119373
 21
7.644708188103058
 31
0.0
  0
LINE
  5
3A3
330
A6
100
AcDbEntity
  8
0
 62
     0
100
AcDbLine
 10
3.436538956548822
 20
7.647359838532508
 30
0.0
 11
3.441842257407722
 21
7.652663139391407
 31
0.0
  0
LINE
  5
3A4
330
A6
100
AcDbEntity
  8
0
 62
     0
100
AcDbLine
 10
3.444493907837171
 20
7.655314789820856
 30
0.0
 11
3.44979720869607
 21
7.660618090679755
 31
0.0
  0
LINE
  5
3A5
330
A6
100
AcDbEntity
  8
0
 62
     0
100
AcDbLine
 10
3.45244885912552
 20
7.663269741109204
 30
0.0
 11
3.457752159984419
 21
7.668573041968103
 31
0.0
  0
LINE
  5
3A6
330
A6
100
AcDbEntity
  8
0
 62
     0
100
AcDbLine
 10
3.460403810413869
 20
7.671224692397553
 30
0.0
 11
3.465707111272768
 21
7.676527993256452
 31
0.0
  0
LINE
  5
3A7
330
A6
100
AcDbEntity
  8
0
 62
     0
100
AcDbLine
 10
3.097127701579279
 20
7.286735380127371
 30
0.0
 11
3.102431002438178
 21
7.29203868098627
 31
0.0
  0
LINE
  5
3A8
330
A6
100
AcDbEntity
  8
0
 62
     0
100
AcDbLine
 10
3.105082652867628
 20
7.294690331415719
 30
0.0
 11
3.110385953726527
 21
7.299993632274619
 31
0.0
  0
LINE
  5
3A9
330
A6
100
AcDbEntity
  8
0
 62
     0
100
AcDbLine
 10
3.113037604155977
 20
7.302645282704068
 30
0.0
 11
3.118340905014876
 21
7.307948583562967
 31
0.0
  0
LINE
  5
3AA
330
A6
100
AcDbEntity
  8
0
 62
     0
100
AcDbLine
 10
3.120992555444325
 20
7.310600233992416
 30
0.0
 11
3.126295856303225
 21
7.315903534851315
 31
0.0
  0
LINE
  5
3AB
330
A6
100
AcDbEntity
  8
0
 62
     0
100
AcDbLine
 10
3.128947506732674
 20
7.318555185280764
 30
0.0
 11
3.134250807591573
 21
7.323858486139664
 31
0.0
  0
LINE
  5
3AC
330
A6
100
AcDbEntity
  8
0
 62
     0
100
AcDbLine
 10
3.136902458021023
 20
7.326510136569113
 30
0.0
 11
3.142205758879922
 21
7.331813437428012
 31
0.0
  0
LINE
  5
3AD
330
A6
100
AcDbEntity
  8
0
 62
     0
100
AcDbLine
 10
3.387414814272641
 20
7.577022492820733
 30
0.0
 11
3.38880924881873
 21
7.578416927366822
 31
0.0
  0
LINE
  5
3AE
330
A6
100
AcDbEntity
  8
0
 62
     0
100
AcDbLine
 10
3.391460899248179
 20
7.581068577796271
 30
0.0
 11
3.396764200107079
 21
7.58637187865517
 31
0.0
  0
LINE
  5
3AF
330
A6
100
AcDbEntity
  8
0
 62
     0
100
AcDbLine
 10
3.399415850536528
 20
7.589023529084619
 30
0.0
 11
3.404719151395427
 21
7.594326829943518
 31
0.0
  0
LINE
  5
3B0
330
A6
100
AcDbEntity
  8
0
 62
     0
100
AcDbLine
 10
3.407370801824877
 20
7.596978480372968
 30
0.0
 11
3.412674102683776
 21
7.602281781231867
 31
0.0
  0
LINE
  5
3B1
330
A6
100
AcDbEntity
  8
0
 62
     0
100
AcDbLine
 10
3.415325753113226
 20
7.604933431661316
 30
0.0
 11
3.420629053972125
 21
7.610236732520215
 31
0.0
  0
LINE
  5
3B2
330
A6
100
AcDbEntity
  8
0
 62
     0
100
AcDbLine
 10
3.423280704401574
 20
7.612888382949664
 30
0.0
 11
3.428584005260474
 21
7.618191683808563
 31
0.0
  0
LINE
  5
3B3
330
A6
100
AcDbEntity
  8
0
 62
     0
100
AcDbLine
 10
3.431235655689923
 20
7.620843334238013
 30
0.0
 11
3.436538956548822
 21
7.626146635096912
 31
0.0
  0
LINE
  5
3B4
330
A6
100
AcDbEntity
  8
0
 62
     0
100
AcDbLine
 10
3.439190606978272
 20
7.628798285526361
 30
0.0
 11
3.444493907837171
 21
7.63410158638526
 31
0.0
  0
LINE
  5
3B5
330
A6
100
AcDbEntity
  8
0
 62
     0
100
AcDbLine
 10
3.447145558266621
 20
7.636753236814709
 30
0.0
 11
3.45244885912552
 21
7.642056537673608
 31
0.0
  0
LINE
  5
3B6
330
A6
100
AcDbEntity
  8
0
 62
     0
100
AcDbLine
 10
3.45510050955497
 20
7.644708188103058
 30
0.0
 11
3.460403810413869
 21
7.650011488961957
 31
0.0
  0
LINE
  5
3B7
330
A6
100
AcDbEntity
  8
0
 62
     0
100
AcDbLine
 10
3.463055460843318
 20
7.652663139391406
 30
0.0
 11
3.468358761702218
 21
7.657966440250305
 31
0.0
  0
LINE
  5
3B8
330
A6
100
AcDbEntity
  8
0
 62
     0
100
AcDbLine
 10
3.471010412131667
 20
7.660618090679754
 30
0.0
 11
3.476313712990566
 21
7.665921391538653
 31
0.0
  0
LINE
  5
3B9
330
A6
100
AcDbEntity
  8
0
 62
     0
100
AcDbLine
 10
3.478965363420016
 20
7.668573041968103
 30
0.0
 11
3.484268664278915
 21
7.673876342827002
 31
0.0
  0
LINE
  5
3BA
330
A6
100
AcDbEntity
  8
0
 62
     0
100
AcDbLine
 10
3.115866892040723
 20
7.284261367153219
 30
0.0
 11
3.120992555444325
 21
7.289387030556821
 31
0.0
  0
LINE
  5
3BB
330
A6
100
AcDbEntity
  8
0
 62
     0
100
AcDbLine
 10
3.123644205873775
 20
7.29203868098627
 30
0.0
 11
3.128947506732674
 21
7.297341981845169
 31
0.0
  0
LINE
  5
3BC
330
A6
100
AcDbEntity
  8
0
 62
     0
100
AcDbLine
 10
3.131599157162123
 20
7.299993632274619
 30
0.0
 11
3.136902458021022
 21
7.305296933133518
 31
0.0
  0
LINE
  5
3BD
330
A6
100
AcDbEntity
  8
0
 62
     0
100
AcDbLine
 10
3.139554108450472
 20
7.307948583562967
 30
0.0
 11
3.144857409309371
 21
7.313251884421866
 31
0.0
  0
LINE
  5
3BE
330
A6
100
AcDbEntity
  8
0
 62
     0
100
AcDbLine
 10
3.147509059738821
 20
7.315903534851315
 30
0.0
 11
3.15281236059772
 21
7.321206835710214
 31
0.0
  0
LINE
  5
3BF
330
A6
100
AcDbEntity
  8
0
 62
     0
100
AcDbLine
 10
3.15546401102717
 20
7.323858486139664
 30
0.0
 11
3.160767311886069
 21
7.329161786998563
 31
0.0
  0
LINE
  5
3C0
330
A6
100
AcDbEntity
  8
0
 62
     0
100
AcDbLine
 10
3.163418962315518
 20
7.331813437428012
 30
0.0
 11
3.167453744023915
 21
7.335848219136408
 31
0.0
  0
LINE
  5
3C1
330
A6
100
AcDbEntity
  8
0
 62
     0
100
AcDbLine
 10
3.402067500965978
 20
7.570461976078473
 30
0.0
 11
3.407370801824877
 21
7.575765276937373
 31
0.0
  0
LINE
  5
3C2
330
A6
100
AcDbEntity
  8
0
 62
     0
100
AcDbLine
 10
3.410022452254326
 20
7.578416927366822
 30
0.0
 11
3.415325753113226
 21
7.583720228225721
 31
0.0
  0
LINE
  5
3C3
330
A6
100
AcDbEntity
  8
0
 62
     0
100
AcDbLine
 10
3.417977403542675
 20
7.58637187865517
 30
0.0
 11
3.423280704401574
 21
7.591675179514069
 31
0.0
  0
LINE
  5
3C4
330
A6
100
AcDbEntity
  8
0
 62
     0
100
AcDbLine
 10
3.425932354831024
 20
7.594326829943518
 30
0.0
 11
3.431235655689923
 21
7.599630130802418
 31
0.0
  0
LINE
  5
3C5
330
A6
100
AcDbEntity
  8
0
 62
     0
100
AcDbLine
 10
3.433887306119373
 20
7.602281781231867
 30
0.0
 11
3.439190606978272
 21
7.607585082090766
 31
0.0
  0
LINE
  5
3C6
330
A6
100
AcDbEntity
  8
0
 62
     0
100
AcDbLine
 10
3.441842257407722
 20
7.610236732520215
 30
0.0
 11
3.447145558266621
 21
7.615540033379114
 31
0.0
  0
LINE
  5
3C7
330
A6
100
AcDbEntity
  8
0
 62
     0
100
AcDbLine
 10
3.44979720869607
 20
7.618191683808563
 30
0.0
 11
3.45510050955497
 21
7.623494984667463
 31
0.0
  0
LINE
  5
3C8
330
A6
100
AcDbEntity
  8
0
 62
     0
100
AcDbLine
 10
3.457752159984419
 20
7.626146635096912
 30
0.0
 11
3.463055460843318
 21
7.631449935955811
 31
0.0
  0
LINE
  5
3C9
330
A6
100
AcDbEntity
  8
0
 62
     0
100
AcDbLine
 10
3.465707111272768
 20
7.63410158638526
 30
0.0
 11
3.471010412131667
 21
7.639404887244159
 31
0.0
  0
LINE
  5
3CA
330
A6
100
AcDbEntity
  8
0
 62
     0
100
AcDbLine
 10
3.473662062561117
 20
7.642056537673608
 30
0.0
 11
3.478965363420016
 21
7.647359838532508
 31
0.0
  0
LINE
  5
3CB
330
A6
100
AcDbEntity
  8
0
 62
     0
100
AcDbLine
 10
3.481617013849465
 20
7.650011488961957
 30
0.0
 11
3.486920314708365
 21
7.655314789820856
 31
0.0
  0
LINE
  5
3CC
330
A6
100
AcDbEntity
  8
0
 62
     0
100
AcDbLine
 10
3.489571965137814
 20
7.657966440250305
 30
0.0
 11
3.494875265996713
 21
7.663269741109204
 31
0.0
  0
LINE
  5
3CD
330
A6
100
AcDbEntity
  8
0
 62
     0
100
AcDbLine
 10
3.497526916426163
 20
7.665921391538653
 30
0.0
 11
3.502830217285062
 21
7.671224692397553
 31
0.0
  0
LINE
  5
3CE
330
A6
100
AcDbEntity
  8
0
 62
     0
100
AcDbLine
 10
3.13708009547632
 20
7.284261367153219
 30
0.0
 11
3.139554108450472
 21
7.286735380127371
 31
0.0
  0
LINE
  5
3CF
330
A6
100
AcDbEntity
  8
0
 62
     0
100
AcDbLine
 10
3.142205758879922
 20
7.28938703055682
 30
0.0
 11
3.147509059738821
 21
7.294690331415719
 31
0.0
  0
LINE
  5
3D0
330
A6
100
AcDbEntity
  8
0
 62
     0
100
AcDbLine
 10
3.15016071016827
 20
7.297341981845169
 30
0.0
 11
3.15546401102717
 21
7.302645282704068
 31
0.0
  0
LINE
  5
3D1
330
A6
100
AcDbEntity
  8
0
 62
     0
100
AcDbLine
 10
3.158115661456619
 20
7.305296933133517
 30
0.0
 11
3.163418962315518
 21
7.310600233992416
 31
0.0
  0
LINE
  5
3D2
330
A6
100
AcDbEntity
  8
0
 62
     0
100
AcDbLine
 10
3.166070612744968
 20
7.313251884421865
 30
0.0
 11
3.171373913603867
 21
7.318555185280764
 31
0.0
  0
LINE
  5
3D3
330
A6
100
AcDbEntity
  8
0
 62
     0
100
AcDbLine
 10
3.174025564033317
 20
7.321206835710214
 30
0.0
 11
3.179328864892216
 21
7.326510136569113
 31
0.0
  0
LINE
  5
3D4
330
A6
100
AcDbEntity
  8
0
 62
     0
100
AcDbLine
 10
3.181980515321666
 20
7.329161786998562
 30
0.0
 11
3.187283816180565
 21
7.334465087857461
 31
0.0
  0
LINE
  5
3D5
330
A6
100
AcDbEntity
  8
0
 62
     0
100
AcDbLine
 10
3.189935466610014
 20
7.33711673828691
 30
0.0
 11
3.190610503293794
 21
7.33779177497069
 31
0.0
  0
LINE
  5
3D6
330
A6
100
AcDbEntity
  8
0
 62
     0
100
AcDbLine
 10
3.415324908245635
 20
7.562506179922534
 30
0.0
 11
3.417977403542675
 21
7.565158675219574
 31
0.0
  0
LINE
  5
3D7
330
A6
100
AcDbEntity
  8
0
 62
     0
100
AcDbLine
 10
3.420629053972125
 20
7.567810325649023
 30
0.0
 11
3.425932354831024
 21
7.573113626507923
 31
0.0
  0
LINE
  5
3D8
330
A6
100
AcDbEntity
  8
0
 62
     0
100
AcDbLine
 10
3.428584005260474
 20
7.575765276937372
 30
0.0
 11
3.433887306119373
 21
7.581068577796271
 31
0.0
  0
LINE
  5
3D9
330
A6
100
AcDbEntity
  8
0
 62
     0
100
AcDbLine
 10
3.436538956548822
 20
7.58372022822572
 30
0.0
 11
3.441842257407722
 21
7.589023529084619
 31
0.0
  0
LINE
  5
3DA
330
A6
100
AcDbEntity
  8
0
 62
     0
100
AcDbLine
 10
3.444493907837171
 20
7.591675179514068
 30
0.0
 11
3.44979720869607
 21
7.596978480372968
 31
0.0
  0
LINE
  5
3DB
330
A6
100
AcDbEntity
  8
0
 62
     0
100
AcDbLine
 10
3.45244885912552
 20
7.599630130802417
 30
0.0
 11
3.457752159984419
 21
7.604933431661316
 31
0.0
  0
LINE
  5
3DC
330
A6
100
AcDbEntity
  8
0
 62
     0
100
AcDbLine
 10
3.460403810413869
 20
7.607585082090765
 30
0.0
 11
3.465707111272768
 21
7.612888382949664
 31
0.0
  0
LINE
  5
3DD
330
A6
100
AcDbEntity
  8
0
 62
     0
100
AcDbLine
 10
3.468358761702218
 20
7.615540033379113
 30
0.0
 11
3.473662062561117
 21
7.620843334238013
 31
0.0
  0
LINE
  5
3DE
330
A6
100
AcDbEntity
  8
0
 62
     0
100
AcDbLine
 10
3.476313712990566
 20
7.623494984667462
 30
0.0
 11
3.481617013849465
 21
7.628798285526361
 31
0.0
  0
LINE
  5
3DF
330
A6
100
AcDbEntity
  8
0
 62
     0
100
AcDbLine
 10
3.484268664278915
 20
7.63144993595581
 30
0.0
 11
3.489571965137814
 21
7.636753236814709
 31
0.0
  0
LINE
  5
3E0
330
A6
100
AcDbEntity
  8
0
 62
     0
100
AcDbLine
 10
3.492223615567264
 20
7.639404887244158
 30
0.0
 11
3.497526916426163
 21
7.644708188103058
 31
0.0
  0
LINE
  5
3E1
330
A6
100
AcDbEntity
  8
0
 62
     0
100
AcDbLine
 10
3.500178566855613
 20
7.647359838532507
 30
0.0
 11
3.505481867714512
 21
7.652663139391406
 31
0.0
  0
LINE
  5
3E2
330
A6
100
AcDbEntity
  8
0
 62
     0
100
AcDbLine
 10
3.508133518143961
 20
7.655314789820855
 30
0.0
 11
3.513436819002861
 21
7.660618090679754
 31
0.0
  0
LINE
  5
3E3
330
A6
100
AcDbEntity
  8
0
 62
     0
100
AcDbLine
 10
3.51608846943231
 20
7.663269741109203
 30
0.0
 11
3.516613571934741
 21
7.663794843611634
 31
0.0
  0
LINE
  5
3E4
330
A6
100
AcDbEntity
  8
0
 62
     0
100
AcDbLine
 10
3.160767311886068
 20
7.286735380127371
 30
0.0
 11
3.166070612744968
 21
7.29203868098627
 31
0.0
  0
LINE
  5
3E5
330
A6
100
AcDbEntity
  8
0
 62
     0
100
AcDbLine
 10
3.168722263174417
 20
7.294690331415719
 30
0.0
 11
3.174025564033316
 21
7.299993632274619
 31
0.0
  0
LINE
  5
3E6
330
A6
100
AcDbEntity
  8
0
 62
     0
100
AcDbLine
 10
3.176677214462766
 20
7.302645282704068
 30
0.0
 11
3.181980515321665
 21
7.307948583562967
 31
0.0
  0
LINE
  5
3E7
330
A6
100
AcDbEntity
  8
0
 62
     0
100
AcDbLine
 10
3.184632165751115
 20
7.310600233992416
 30
0.0
 11
3.189935466610014
 21
7.315903534851315
 31
0.0
  0
LINE
  5
3E8
330
A6
100
AcDbEntity
  8
0
 62
     0
100
AcDbLine
 10
3.192587117039463
 20
7.318555185280764
 30
0.0
 11
3.197890417898363
 21
7.323858486139664
 31
0.0
  0
LINE
  5
3E9
330
A6
100
AcDbEntity
  8
0
 62
     0
100
AcDbLine
 10
3.200542068327812
 20
7.326510136569113
 30
0.0
 11
3.205845369186711
 21
7.331813437428012
 31
0.0
  0
LINE
  5
3EA
330
A6
100
AcDbEntity
  8
0
 62
     0
100
AcDbLine
 10
3.208497019616161
 20
7.334465087857461
 30
0.0
 11
3.21380032047506
 21
7.33976838871636
 31
0.0
  0
LINE
  5
3EB
330
A6
100
AcDbEntity
  8
0
 62
     0
100
AcDbLine
 10
3.428372123253219
 20
7.554340191494522
 30
0.0
 11
3.428584005260473
 21
7.554552073501776
 31
0.0
  0
LINE
  5
3EC
330
A6
100
AcDbEntity
  8
0
 62
     0
100
AcDbLine
 10
3.431235655689923
 20
7.557203723931225
 30
0.0
 11
3.436538956548822
 21
7.562507024790124
 31
0.0
  0
LINE
  5
3ED
330
A6
100
AcDbEntity
  8
0
 62
     0
100
AcDbLine
 10
3.439190606978272
 20
7.565158675219573
 30
0.0
 11
3.444493907837171
 21
7.570461976078473
 31
0.0
  0
LINE
  5
3EE
330
A6
100
AcDbEntity
  8
0
 62
     0
100
AcDbLine
 10
3.44714555826662
 20
7.573113626507922
 30
0.0
 11
3.45244885912552
 21
7.578416927366821
 31
0.0
  0
LINE
  5
3EF
330
A6
100
AcDbEntity
  8
0
 62
     0
100
AcDbLine
 10
3.455100509554969
 20
7.58106857779627
 30
0.0
 11
3.460403810413868
 21
7.586371878655169
 31
0.0
  0
LINE
  5
3F0
330
A6
100
AcDbEntity
  8
0
 62
     0
100
AcDbLine
 10
3.463055460843318
 20
7.589023529084618
 30
0.0
 11
3.468358761702217
 21
7.594326829943518
 31
0.0
  0
LINE
  5
3F1
330
A6
100
AcDbEntity
  8
0
 62
     0
100
AcDbLine
 10
3.471010412131667
 20
7.596978480372967
 30
0.0
 11
3.476313712990566
 21
7.602281781231866
 31
0.0
  0
LINE
  5
3F2
330
A6
100
AcDbEntity
  8
0
 62
     0
100
AcDbLine
 10
3.478965363420015
 20
7.604933431661315
 30
0.0
 11
3.484268664278915
 21
7.610236732520214
 31
0.0
  0
LINE
  5
3F3
330
A6
100
AcDbEntity
  8
0
 62
     0
100
AcDbLine
 10
3.486920314708364
 20
7.612888382949663
 30
0.0
 11
3.492223615567263
 21
7.618191683808563
 31
0.0
  0
LINE
  5
3F4
330
A6
100
AcDbEntity
  8
0
 62
     0
100
AcDbLine
 10
3.494875265996713
 20
7.620843334238012
 30
0.0
 11
3.500178566855612
 21
7.626146635096911
 31
0.0
  0
LINE
  5
3F5
330
A6
100
AcDbEntity
  8
0
 62
     0
100
AcDbLine
 10
3.502830217285062
 20
7.62879828552636
 30
0.0
 11
3.508133518143961
 21
7.634101586385259
 31
0.0
  0
LINE
  5
3F6
330
A6
100
AcDbEntity
  8
0
 62
     0
100
AcDbLine
 10
3.510785168573411
 20
7.636753236814708
 30
0.0
 11
3.51608846943231
 21
7.642056537673608
 31
0.0
  0
LINE
  5
3F7
330
A6
100
AcDbEntity
  8
0
 62
     0
100
AcDbLine
 10
3.518740119861759
 20
7.644708188103057
 30
0.0
 11
3.524043420720659
 21
7.650011488961956
 31
0.0
  0
LINE
  5
3F8
330
A6
100
AcDbEntity
  8
0
 62
     0
100
AcDbLine
 10
3.179506502347512
 20
7.284261367153219
 30
0.0
 11
3.184632165751114
 21
7.289387030556821
 31
0.0
  0
LINE
  5
3F9
330
A6
100
AcDbEntity
  8
0
 62
     0
100
AcDbLine
 10
3.187283816180563
 20
7.29203868098627
 30
0.0
 11
3.192587117039463
 21
7.297341981845169
 31
0.0
  0
LINE
  5
3FA
330
A6
100
AcDbEntity
  8
0
 62
     0
100
AcDbLine
 10
3.195238767468912
 20
7.299993632274619
 30
0.0
 11
3.200542068327811
 21
7.305296933133518
 31
0.0
  0
LINE
  5
3FB
330
A6
100
AcDbEntity
  8
0
 62
     0
100
AcDbLine
 10
3.203193718757261
 20
7.307948583562967
 30
0.0
 11
3.20849701961616
 21
7.313251884421866
 31
0.0
  0
LINE
  5
3FC
330
A6
100
AcDbEntity
  8
0
 62
     0
100
AcDbLine
 10
3.21114867004561
 20
7.315903534851315
 30
0.0
 11
3.216451970904509
 21
7.321206835710214
 31
0.0
  0
LINE
  5
3FD
330
A6
100
AcDbEntity
  8
0
 62
     0
100
AcDbLine
 10
3.219103621333958
 20
7.323858486139664
 30
0.0
 11
3.224406922192858
 21
7.329161786998563
 31
0.0
  0
LINE
  5
3FE
330
A6
100
AcDbEntity
  8
0
 62
     0
100
AcDbLine
 10
3.227058572622307
 20
7.331813437428012
 30
0.0
 11
3.232361873481206
 21
7.337116738286911
 31
0.0
  0
LINE
  5
3FF
330
A6
100
AcDbEntity
  8
0
 62
     0
100
AcDbLine
 10
3.235013523910656
 20
7.33976838871636
 30
0.0
 11
3.238750155830265
 21
7.343505020635969
 31
0.0
  0
LINE
  5
400
330
A6
100
AcDbEntity
  8
0
 62
     0
100
AcDbLine
 10
3.44184225740772
 20
7.546597122213428
 30
0.0
 11
3.447145558266619
 21
7.551900423072327
 31
0.0
  0
LINE
  5
401
330
A6
100
AcDbEntity
  8
0
 62
     0
100
AcDbLine
 10
3.449797208696069
 20
7.554552073501776
 30
0.0
 11
3.455100509554968
 21
7.559855374360675
 31
0.0
  0
LINE
  5
402
330
A6
100
AcDbEntity
  8
0
 62
     0
100
AcDbLine
 10
3.457752159984418
 20
7.562507024790124
 30
0.0
 11
3.463055460843317
 21
7.567810325649023
 31
0.0
  0
LINE
  5
403
330
A6
100
AcDbEntity
  8
0
 62
     0
100
AcDbLine
 10
3.465707111272767
 20
7.570461976078473
 30
0.0
 11
3.471010412131666
 21
7.575765276937372
 31
0.0
  0
LINE
  5
404
330
A6
100
AcDbEntity
  8
0
 62
     0
100
AcDbLine
 10
3.473662062561115
 20
7.578416927366821
 30
0.0
 11
3.478965363420015
 21
7.58372022822572
 31
0.0
  0
LINE
  5
405
330
A6
100
AcDbEntity
  8
0
 62
     0
100
AcDbLine
 10
3.481617013849464
 20
7.586371878655169
 30
0.0
 11
3.486920314708363
 21
7.591675179514068
 31
0.0
  0
LINE
  5
406
330
A6
100
AcDbEntity
  8
0
 62
     0
100
AcDbLine
 10
3.489571965137813
 20
7.594326829943518
 30
0.0
 11
3.494875265996712
 21
7.599630130802417
 31
0.0
  0
LINE
  5
407
330
A6
100
AcDbEntity
  8
0
 62
     0
100
AcDbLine
 10
3.497526916426162
 20
7.602281781231866
 30
0.0
 11
3.502830217285061
 21
7.607585082090765
 31
0.0
  0
LINE
  5
408
330
A6
100
AcDbEntity
  8
0
 62
     0
100
AcDbLine
 10
3.50548186771451
 20
7.610236732520214
 30
0.0
 11
3.51078516857341
 21
7.615540033379113
 31
0.0
  0
LINE
  5
409
330
A6
100
AcDbEntity
  8
0
 62
     0
100
AcDbLine
 10
3.513436819002859
 20
7.618191683808563
 30
0.0
 11
3.518740119861758
 21
7.623494984667462
 31
0.0
  0
LINE
  5
40A
330
A6
100
AcDbEntity
  8
0
 62
     0
100
AcDbLine
 10
3.521391770291208
 20
7.626146635096911
 30
0.0
 11
3.526695071150107
 21
7.63144993595581
 31
0.0
  0
LINE
  5
40B
330
A6
100
AcDbEntity
  8
0
 62
     0
100
AcDbLine
 10
3.529346721579557
 20
7.634101586385259
 30
0.0
 11
3.532108746425563
 21
7.636863611231266
 31
0.0
  0
LINE
  5
40C
330
A6
100
AcDbEntity
  8
0
 62
     0
100
AcDbLine
 10
3.200719705783109
 20
7.284261367153219
 30
0.0
 11
3.20319371875726
 21
7.286735380127371
 31
0.0
  0
LINE
  5
40D
330
A6
100
AcDbEntity
  8
0
 62
     0
100
AcDbLine
 10
3.20584536918671
 20
7.28938703055682
 30
0.0
 11
3.211148670045609
 21
7.294690331415719
 31
0.0
  0
LINE
  5
40E
330
A6
100
AcDbEntity
  8
0
 62
     0
100
AcDbLine
 10
3.213800320475059
 20
7.297341981845169
 30
0.0
 11
3.219103621333958
 21
7.302645282704068
 31
0.0
  0
LINE
  5
40F
330
A6
100
AcDbEntity
  8
0
 62
     0
100
AcDbLine
 10
3.221755271763408
 20
7.305296933133517
 30
0.0
 11
3.227058572622307
 21
7.310600233992416
 31
0.0
  0
LINE
  5
410
330
A6
100
AcDbEntity
  8
0
 62
     0
100
AcDbLine
 10
3.229710223051756
 20
7.313251884421865
 30
0.0
 11
3.235013523910656
 21
7.318555185280764
 31
0.0
  0
LINE
  5
411
330
A6
100
AcDbEntity
  8
0
 62
     0
100
AcDbLine
 10
3.237665174340105
 20
7.321206835710214
 30
0.0
 11
3.242968475199004
 21
7.326510136569113
 31
0.0
  0
LINE
  5
412
330
A6
100
AcDbEntity
  8
0
 62
     0
100
AcDbLine
 10
3.245620125628454
 20
7.329161786998562
 30
0.0
 11
3.250923426487353
 21
7.334465087857461
 31
0.0
  0
LINE
  5
413
330
A6
100
AcDbEntity
  8
0
 62
     0
100
AcDbLine
 10
3.253575076916803
 20
7.33711673828691
 30
0.0
 11
3.258878377775702
 21
7.342420039145809
 31
0.0
  0
LINE
  5
414
330
A6
100
AcDbEntity
  8
0
 62
     0
100
AcDbLine
 10
3.261530028205152
 20
7.345071689575259
 30
0.0
 11
3.263911841099023
 21
7.34745350246913
 31
0.0
  0
LINE
  5
415
330
A6
100
AcDbEntity
  8
0
 62
     0
100
AcDbLine
 10
3.452757888538698
 20
7.536299549908808
 30
0.0
 11
3.457752159984418
 21
7.541293821354528
 31
0.0
  0
LINE
  5
416
330
A6
100
AcDbEntity
  8
0
 62
     0
100
AcDbLine
 10
3.460403810413867
 20
7.543945471783978
 30
0.0
 11
3.465707111272767
 21
7.549248772642877
 31
0.0
  0
LINE
  5
417
330
A6
100
AcDbEntity
  8
0
 62
     0
100
AcDbLine
 10
3.468358761702216
 20
7.551900423072326
 30
0.0
 11
3.473662062561115
 21
7.557203723931225
 31
0.0
  0
LINE
  5
418
330
A6
100
AcDbEntity
  8
0
 62
     0
100
AcDbLine
 10
3.476313712990565
 20
7.559855374360674
 30
0.0
 11
3.481617013849464
 21
7.565158675219573
 31
0.0
  0
LINE
  5
419
330
A6
100
AcDbEntity
  8
0
 62
     0
100
AcDbLine
 10
3.484268664278914
 20
7.567810325649023
 30
0.0
 11
3.489571965137813
 21
7.573113626507922
 31
0.0
  0
LINE
  5
41A
330
A6
100
AcDbEntity
  8
0
 62
     0
100
AcDbLine
 10
3.492223615567263
 20
7.575765276937371
 30
0.0
 11
3.497526916426162
 21
7.58106857779627
 31
0.0
  0
LINE
  5
41B
330
A6
100
AcDbEntity
  8
0
 62
     0
100
AcDbLine
 10
3.500178566855611
 20
7.583720228225719
 30
0.0
 11
3.50548186771451
 21
7.589023529084618
 31
0.0
  0
LINE
  5
41C
330
A6
100
AcDbEntity
  8
0
 62
     0
100
AcDbLine
 10
3.50813351814396
 20
7.591675179514068
 30
0.0
 11
3.513436819002859
 21
7.596978480372967
 31
0.0
  0
LINE
  5
41D
330
A6
100
AcDbEntity
  8
0
 62
     0
100
AcDbLine
 10
3.516088469432309
 20
7.599630130802416
 30
0.0
 11
3.521391770291208
 21
7.604933431661315
 31
0.0
  0
LINE
  5
41E
330
A6
100
AcDbEntity
  8
0
 62
     0
100
AcDbLine
 10
3.524043420720658
 20
7.607585082090764
 30
0.0
 11
3.529346721579557
 21
7.612888382949663
 31
0.0
  0
LINE
  5
41F
330
A6
100
AcDbEntity
  8
0
 62
     0
100
AcDbLine
 10
3.531998372009006
 20
7.615540033379113
 30
0.0
 11
3.533151766871069
 21
7.616693428241175
 31
0.0
  0
LINE
  5
420
330
A6
100
AcDbEntity
  8
0
 62
     0
100
AcDbLine
 10
3.224406922192857
 20
7.286735380127371
 30
0.0
 11
3.229710223051756
 21
7.29203868098627
 31
0.0
  0
LINE
  5
421
330
A6
100
AcDbEntity
  8
0
 62
     0
100
AcDbLine
 10
3.232361873481206
 20
7.294690331415719
 30
0.0
 11
3.237665174340105
 21
7.299993632274619
 31
0.0
  0
LINE
  5
422
330
A6
100
AcDbEntity
  8
0
 62
     0
100
AcDbLine
 10
3.240316824769555
 20
7.302645282704068
 30
0.0
 11
3.245620125628454
 21
7.307948583562967
 31
0.0
  0
LINE
  5
423
330
A6
100
AcDbEntity
  8
0
 62
     0
100
AcDbLine
 10
3.248271776057904
 20
7.310600233992416
 30
0.0
 11
3.253575076916803
 21
7.315903534851315
 31
0.0
  0
LINE
  5
424
330
A6
100
AcDbEntity
  8
0
 62
     0
100
AcDbLine
 10
3.256226727346252
 20
7.318555185280764
 30
0.0
 11
3.261530028205152
 21
7.323858486139664
 31
0.0
  0
LINE
  5
425
330
A6
100
AcDbEntity
  8
0
 62
     0
100
AcDbLine
 10
3.264181678634601
 20
7.326510136569113
 30
0.0
 11
3.2694849794935
 21
7.331813437428012
 31
0.0
  0
LINE
  5
426
330
A6
100
AcDbEntity
  8
0
 62
     0
100
AcDbLine
 10
3.27213662992295
 20
7.334465087857461
 30
0.0
 11
3.277439930781849
 21
7.33976838871636
 31
0.0
  0
LINE
  5
427
330
A6
100
AcDbEntity
  8
0
 62
     0
100
AcDbLine
 10
3.280091581211299
 20
7.342420039145809
 30
0.0
 11
3.285394882070198
 21
7.347723340004709
 31
0.0
  0
LINE
  5
428
330
A6
100
AcDbEntity
  8
0
 62
     0
100
AcDbLine
 10
3.288046532499647
 20
7.350374990434158
 30
0.0
 11
3.290428513260581
 21
7.35275697119509
 31
0.0
  0
LINE
  5
429
330
A6
100
AcDbEntity
  8
0
 62
     0
100
AcDbLine
 10
3.464118613410255
 20
7.52644707134477
 30
0.0
 11
3.468358761702216
 21
7.53068721963673
 31
0.0
  0
LINE
  5
42A
330
A6
100
AcDbEntity
  8
0
 62
     0
100
AcDbLine
 10
3.471010412131666
 20
7.533338870066179
 30
0.0
 11
3.476313712990565
 21
7.538642170925078
 31
0.0
  0
LINE
  5
42B
330
A6
100
AcDbEntity
  8
0
 62
     0
100
AcDbLine
 10
3.478965363420015
 20
7.541293821354527
 30
0.0
 11
3.484268664278914
 21
7.546597122213427
 31
0.0
  0
LINE
  5
42C
330
A6
100
AcDbEntity
  8
0
 62
     0
100
AcDbLine
 10
3.486920314708363
 20
7.549248772642876
 30
0.0
 11
3.492223615567263
 21
7.554552073501775
 31
0.0
  0
LINE
  5
42D
330
A6
100
AcDbEntity
  8
0
 62
     0
100
AcDbLine
 10
3.494875265996712
 20
7.557203723931224
 30
0.0
 11
3.500178566855611
 21
7.562507024790123
 31
0.0
  0
LINE
  5
42E
330
A6
100
AcDbEntity
  8
0
 62
     0
100
AcDbLine
 10
3.502830217285061
 20
7.565158675219572
 30
0.0
 11
3.50813351814396
 21
7.570461976078472
 31
0.0
  0
LINE
  5
42F
330
A6
100
AcDbEntity
  8
0
 62
     0
100
AcDbLine
 10
3.51078516857341
 20
7.573113626507921
 30
0.0
 11
3.516088469432309
 21
7.57841692736682
 31
0.0
  0
LINE
  5
430
330
A6
100
AcDbEntity
  8
0
 62
     0
100
AcDbLine
 10
3.518740119861758
 20
7.581068577796269
 30
0.0
 11
3.524043420720658
 21
7.586371878655168
 31
0.0
  0
LINE
  5
431
330
A6
100
AcDbEntity
  8
0
 62
     0
100
AcDbLine
 10
3.526695071150107
 20
7.589023529084617
 30
0.0
 11
3.531998372009006
 21
7.594326829943517
 31
0.0
  0
LINE
  5
432
330
A6
100
AcDbEntity
  8
0
 62
     0
100
AcDbLine
 10
3.243146112654302
 20
7.284261367153219
 30
0.0
 11
3.248271776057904
 21
7.289387030556821
 31
0.0
  0
LINE
  5
433
330
A6
100
AcDbEntity
  8
0
 62
     0
100
AcDbLine
 10
3.250923426487353
 20
7.29203868098627
 30
0.0
 11
3.256226727346252
 21
7.297341981845169
 31
0.0
  0
LINE
  5
434
330
A6
100
AcDbEntity
  8
0
 62
     0
100
AcDbLine
 10
3.258878377775702
 20
7.299993632274619
 30
0.0
 11
3.264181678634601
 21
7.305296933133518
 31
0.0
  0
LINE
  5
435
330
A6
100
AcDbEntity
  8
0
 62
     0
100
AcDbLine
 10
3.266833329064051
 20
7.307948583562967
 30
0.0
 11
3.27213662992295
 21
7.313251884421866
 31
0.0
  0
LINE
  5
436
330
A6
100
AcDbEntity
  8
0
 62
     0
100
AcDbLine
 10
3.274788280352399
 20
7.315903534851315
 30
0.0
 11
3.280091581211299
 21
7.321206835710214
 31
0.0
  0
LINE
  5
437
330
A6
100
AcDbEntity
  8
0
 62
     0
100
AcDbLine
 10
3.282743231640748
 20
7.323858486139664
 30
0.0
 11
3.288046532499647
 21
7.329161786998563
 31
0.0
  0
LINE
  5
438
330
A6
100
AcDbEntity
  8
0
 62
     0
100
AcDbLine
 10
3.290698182929097
 20
7.331813437428012
 30
0.0
 11
3.296001483787996
 21
7.337116738286911
 31
0.0
  0
LINE
  5
439
330
A6
100
AcDbEntity
  8
0
 62
     0
100
AcDbLine
 10
3.298653134217446
 20
7.33976838871636
 30
0.0
 11
3.303956435076345
 21
7.345071689575259
 31
0.0
  0
LINE
  5
43A
330
A6
100
AcDbEntity
  8
0
 62
     0
100
AcDbLine
 10
3.306608085505795
 20
7.347723340004709
 30
0.0
 11
3.311911386364694
 21
7.353026640863608
 31
0.0
  0
LINE
  5
43B
330
A6
100
AcDbEntity
  8
0
 62
     0
100
AcDbLine
 10
3.314563036794143
 20
7.355678291293057
 30
0.0
 11
3.31870778564884
 21
7.359823040147754
 31
0.0
  0
LINE
  5
43C
330
A6
100
AcDbEntity
  8
0
 62
     0
100
AcDbLine
 10
3.473814104668616
 20
7.514929359167533
 30
0.0
 11
3.478965363420015
 21
7.520080617918932
 31
0.0
  0
LINE
  5
43D
330
A6
100
AcDbEntity
  8
0
 62
     0
100
AcDbLine
 10
3.481617013849464
 20
7.522732268348381
 30
0.0
 11
3.486920314708363
 21
7.52803556920728
 31
0.0
  0
LINE
  5
43E
330
A6
100
AcDbEntity
  8
0
 62
     0
100
AcDbLine
 10
3.489571965137813
 20
7.530687219636729
 30
0.0
 11
3.494875265996712
 21
7.535990520495628
 31
0.0
  0
LINE
  5
43F
330
A6
100
AcDbEntity
  8
0
 62
     0
100
AcDbLine
 10
3.497526916426162
 20
7.538642170925077
 30
0.0
 11
3.502830217285061
 21
7.543945471783977
 31
0.0
  0
LINE
  5
440
330
A6
100
AcDbEntity
  8
0
 62
     0
100
AcDbLine
 10
3.50548186771451
 20
7.546597122213426
 30
0.0
 11
3.51078516857341
 21
7.551900423072325
 31
0.0
  0
LINE
  5
441
330
A6
100
AcDbEntity
  8
0
 62
     0
100
AcDbLine
 10
3.513436819002859
 20
7.554552073501774
 30
0.0
 11
3.518740119861758
 21
7.559855374360673
 31
0.0
  0
LINE
  5
442
330
A6
100
AcDbEntity
  8
0
 62
     0
100
AcDbLine
 10
3.521391770291208
 20
7.562507024790122
 30
0.0
 11
3.526695071150107
 21
7.567810325649022
 31
0.0
  0
LINE
  5
443
330
A6
100
AcDbEntity
  8
0
 62
     0
100
AcDbLine
 10
3.529346721579557
 20
7.570461976078471
 30
0.0
 11
3.533151766871069
 21
7.574267021369982
 31
0.0
  0
LINE
  5
444
330
A6
100
AcDbEntity
  8
0
 62
     0
100
AcDbLine
 10
3.264359316089898
 20
7.284261367153219
 30
0.0
 11
3.26683332906405
 21
7.286735380127371
 31
0.0
  0
LINE
  5
445
330
A6
100
AcDbEntity
  8
0
 62
     0
100
AcDbLine
 10
3.2694849794935
 20
7.28938703055682
 30
0.0
 11
3.274788280352399
 21
7.294690331415719
 31
0.0
  0
LINE
  5
446
330
A6
100
AcDbEntity
  8
0
 62
     0
100
AcDbLine
 10
3.277439930781849
 20
7.297341981845169
 30
0.0
 11
3.282743231640748
 21
7.302645282704068
 31
0.0
  0
LINE
  5
447
330
A6
100
AcDbEntity
  8
0
 62
     0
100
AcDbLine
 10
3.285394882070197
 20
7.305296933133517
 30
0.0
 11
3.290698182929097
 21
7.310600233992416
 31
0.0
  0
LINE
  5
448
330
A6
100
AcDbEntity
  8
0
 62
     0
100
AcDbLine
 10
3.293349833358546
 20
7.313251884421865
 30
0.0
 11
3.298653134217445
 21
7.318555185280764
 31
0.0
  0
LINE
  5
449
330
A6
100
AcDbEntity
  8
0
 62
     0
100
AcDbLine
 10
3.301304784646895
 20
7.321206835710214
 30
0.0
 11
3.306608085505794
 21
7.326510136569113
 31
0.0
  0
LINE
  5
44A
330
A6
100
AcDbEntity
  8
0
 62
     0
100
AcDbLine
 10
3.309259735935244
 20
7.329161786998562
 30
0.0
 11
3.314563036794143
 21
7.334465087857461
 31
0.0
  0
LINE
  5
44B
330
A6
100
AcDbEntity
  8
0
 62
     0
100
AcDbLine
 10
3.317214687223593
 20
7.33711673828691
 30
0.0
 11
3.322517988082492
 21
7.342420039145809
 31
0.0
  0
LINE
  5
44C
330
A6
100
AcDbEntity
  8
0
 62
     0
100
AcDbLine
 10
3.325169638511941
 20
7.345071689575259
 30
0.0
 11
3.33047293937084
 21
7.350374990434158
 31
0.0
  0
LINE
  5
44D
330
A6
100
AcDbEntity
  8
0
 62
     0
100
AcDbLine
 10
3.33312458980029
 20
7.353026640863607
 30
0.0
 11
3.338427890659189
 21
7.358329941722506
 31
0.0
  0
LINE
  5
44E
330
A6
100
AcDbEntity
  8
0
 62
     0
100
AcDbLine
 10
3.341079541088639
 20
7.360981592151955
 30
0.0
 11
3.346382841947538
 21
7.366284893010854
 31
0.0
  0
LINE
  5
44F
330
A6
100
AcDbEntity
  8
0
 62
     0
100
AcDbLine
 10
3.349034492376988
 20
7.368936543440304
 30
0.0
 11
3.349249732339016
 21
7.369151783402331
 31
0.0
  0
LINE
  5
450
330
A6
100
AcDbEntity
  8
0
 62
     0
100
AcDbLine
 10
3.480767821728363
 20
7.500669872791684
 30
0.0
 11
3.481617013849464
 21
7.501519064912785
 31
0.0
  0
LINE
  5
451
330
A6
100
AcDbEntity
  8
0
 62
     0
100
AcDbLine
 10
3.484268664278913
 20
7.504170715342234
 30
0.0
 11
3.489571965137812
 21
7.509474016201133
 31
0.0
  0
LINE
  5
452
330
A6
100
AcDbEntity
  8
0
 62
     0
100
AcDbLine
 10
3.492223615567262
 20
7.512125666630582
 30
0.0
 11
3.497526916426161
 21
7.517428967489482
 31
0.0
  0
LINE
  5
453
330
A6
100
AcDbEntity
  8
0
 62
     0
100
AcDbLine
 10
3.500178566855611
 20
7.520080617918931
 30
0.0
 11
3.50548186771451
 21
7.52538391877783
 31
0.0
  0
LINE
  5
454
330
A6
100
AcDbEntity
  8
0
 62
     0
100
AcDbLine
 10
3.50813351814396
 20
7.528035569207279
 30
0.0
 11
3.513436819002859
 21
7.533338870066178
 31
0.0
  0
LINE
  5
455
330
A6
100
AcDbEntity
  8
0
 62
     0
100
AcDbLine
 10
3.516088469432308
 20
7.535990520495627
 30
0.0
 11
3.521391770291208
 21
7.541293821354527
 31
0.0
  0
LINE
  5
456
330
A6
100
AcDbEntity
  8
0
 62
     0
100
AcDbLine
 10
3.524043420720657
 20
7.543945471783976
 30
0.0
 11
3.529346721579556
 21
7.549248772642875
 31
0.0
  0
LINE
  5
457
330
A6
100
AcDbEntity
  8
0
 62
     0
100
AcDbLine
 10
3.531998372009006
 20
7.551900423072324
 30
0.0
 11
3.533151766871069
 21
7.553053817934387
 31
0.0
  0
LINE
  5
458
330
A6
100
AcDbEntity
  8
0
 62
     0
100
AcDbLine
 10
3.288046532499647
 20
7.286735380127371
 30
0.0
 11
3.293349833358546
 21
7.29203868098627
 31
0.0
  0
LINE
  5
459
330
A6
100
AcDbEntity
  8
0
 62
     0
100
AcDbLine
 10
3.296001483787995
 20
7.294690331415719
 30
0.0
 11
3.301304784646895
 21
7.299993632274619
 31
0.0
  0
LINE
  5
45A
330
A6
100
AcDbEntity
  8
0
 62
     0
100
AcDbLine
 10
3.303956435076344
 20
7.302645282704068
 30
0.0
 11
3.309259735935243
 21
7.307948583562967
 31
0.0
  0
LINE
  5
45B
330
A6
100
AcDbEntity
  8
0
 62
     0
100
AcDbLine
 10
3.311911386364693
 20
7.310600233992416
 30
0.0
 11
3.317214687223592
 21
7.315903534851315
 31
0.0
  0
LINE
  5
45C
330
A6
100
AcDbEntity
  8
0
 62
     0
100
AcDbLine
 10
3.319866337653042
 20
7.318555185280764
 30
0.0
 11
3.325169638511941
 21
7.323858486139664
 31
0.0
  0
LINE
  5
45D
330
A6
100
AcDbEntity
  8
0
 62
     0
100
AcDbLine
 10
3.32782128894139
 20
7.326510136569113
 30
0.0
 11
3.33312458980029
 21
7.331813437428012
 31
0.0
  0
LINE
  5
45E
330
A6
100
AcDbEntity
  8
0
 62
     0
100
AcDbLine
 10
3.335776240229739
 20
7.334465087857461
 30
0.0
 11
3.341079541088638
 21
7.33976838871636
 31
0.0
  0
LINE
  5
45F
330
A6
100
AcDbEntity
  8
0
 62
     0
100
AcDbLine
 10
3.343731191518088
 20
7.342420039145809
 30
0.0
 11
3.349034492376987
 21
7.347723340004709
 31
0.0
  0
LINE
  5
460
330
A6
100
AcDbEntity
  8
0
 62
     0
100
AcDbLine
 10
3.351686142806437
 20
7.350374990434158
 30
0.0
 11
3.356989443665336
 21
7.355678291293057
 31
0.0
  0
LINE
  5
461
330
A6
100
AcDbEntity
  8
0
 62
     0
100
AcDbLine
 10
3.359641094094786
 20
7.358329941722506
 30
0.0
 11
3.364944394953685
 21
7.363633242581405
 31
0.0
  0
LINE
  5
462
330
A6
100
AcDbEntity
  8
0
 62
     0
100
AcDbLine
 10
3.367596045383134
 20
7.366284893010854
 30
0.0
 11
3.372899346242034
 21
7.371588193869754
 31
0.0
  0
LINE
  5
463
330
A6
100
AcDbEntity
  8
0
 62
     0
100
AcDbLine
 10
3.375550996671483
 20
7.374239844299203
 30
0.0
 11
3.380854297530382
 21
7.379543145158102
 31
0.0
  0
LINE
  5
464
330
A6
100
AcDbEntity
  8
0
 62
     0
100
AcDbLine
 10
3.484072447614722
 20
7.482761295242447
 30
0.0
 11
3.484268664278914
 21
7.482957511906638
 31
0.0
  0
LINE
  5
465
330
A6
100
AcDbEntity
  8
0
 62
     0
100
AcDbLine
 10
3.486920314708363
 20
7.485609162336087
 30
0.0
 11
3.492223615567263
 21
7.490912463194987
 31
0.0
  0
LINE
  5
466
330
A6
100
AcDbEntity
  8
0
 62
     0
100
AcDbLine
 10
3.494875265996712
 20
7.493564113624436
 30
0.0
 11
3.500178566855611
 21
7.498867414483335
 31
0.0
  0
LINE
  5
467
330
A6
100
AcDbEntity
  8
0
 62
     0
100
AcDbLine
 10
3.502830217285061
 20
7.501519064912784
 30
0.0
 11
3.50813351814396
 21
7.506822365771683
 31
0.0
  0
LINE
  5
468
330
A6
100
AcDbEntity
  8
0
 62
     0
100
AcDbLine
 10
3.51078516857341
 20
7.509474016201132
 30
0.0
 11
3.516088469432309
 21
7.514777317060032
 31
0.0
  0
LINE
  5
469
330
A6
100
AcDbEntity
  8
0
 62
     0
100
AcDbLine
 10
3.518740119861758
 20
7.517428967489481
 30
0.0
 11
3.524043420720658
 21
7.52273226834838
 31
0.0
  0
LINE
  5
46A
330
A6
100
AcDbEntity
  8
0
 62
     0
100
AcDbLine
 10
3.526695071150107
 20
7.525383918777829
 30
0.0
 11
3.531998372009006
 21
7.530687219636728
 31
0.0
  0
LINE
  5
46B
330
A6
100
AcDbEntity
  8
0
 62
     0
100
AcDbLine
 10
3.306785722961091
 20
7.284261367153219
 30
0.0
 11
3.311911386364693
 21
7.289387030556821
 31
0.0
  0
LINE
  5
46C
330
A6
100
AcDbEntity
  8
0
 62
     0
100
AcDbLine
 10
3.314563036794142
 20
7.29203868098627
 30
0.0
 11
3.319866337653042
 21
7.297341981845169
 31
0.0
  0
LINE
  5
46D
330
A6
100
AcDbEntity
  8
0
 62
     0
100
AcDbLine
 10
3.322517988082491
 20
7.299993632274619
 30
0.0
 11
3.32782128894139
 21
7.305296933133518
 31
0.0
  0
LINE
  5
46E
330
A6
100
AcDbEntity
  8
0
 62
     0
100
AcDbLine
 10
3.33047293937084
 20
7.307948583562967
 30
0.0
 11
3.335776240229739
 21
7.313251884421866
 31
0.0
  0
LINE
  5
46F
330
A6
100
AcDbEntity
  8
0
 62
     0
100
AcDbLine
 10
3.338427890659189
 20
7.315903534851315
 30
0.0
 11
3.343731191518088
 21
7.321206835710214
 31
0.0
  0
LINE
  5
470
330
A6
100
AcDbEntity
  8
0
 62
     0
100
AcDbLine
 10
3.346382841947538
 20
7.323858486139664
 30
0.0
 11
3.351686142806437
 21
7.329161786998563
 31
0.0
  0
LINE
  5
471
330
A6
100
AcDbEntity
  8
0
 62
     0
100
AcDbLine
 10
3.354337793235886
 20
7.331813437428012
 30
0.0
 11
3.359641094094786
 21
7.337116738286911
 31
0.0
  0
LINE
  5
472
330
A6
100
AcDbEntity
  8
0
 62
     0
100
AcDbLine
 10
3.362292744524235
 20
7.33976838871636
 30
0.0
 11
3.367596045383134
 21
7.345071689575259
 31
0.0
  0
LINE
  5
473
330
A6
100
AcDbEntity
  8
0
 62
     0
100
AcDbLine
 10
3.370247695812584
 20
7.347723340004709
 30
0.0
 11
3.375550996671483
 21
7.353026640863608
 31
0.0
  0
LINE
  5
474
330
A6
100
AcDbEntity
  8
0
 62
     0
100
AcDbLine
 10
3.378202647100933
 20
7.355678291293057
 30
0.0
 11
3.383505947959832
 21
7.360981592151956
 31
0.0
  0
LINE
  5
475
330
A6
100
AcDbEntity
  8
0
 62
     0
100
AcDbLine
 10
3.386157598389281
 20
7.363633242581405
 30
0.0
 11
3.391460899248181
 21
7.368936543440304
 31
0.0
  0
LINE
  5
476
330
A6
100
AcDbEntity
  8
0
 62
     0
100
AcDbLine
 10
3.39411254967763
 20
7.371588193869754
 30
0.0
 11
3.399415850536529
 21
7.376891494728653
 31
0.0
  0
LINE
  5
477
330
A6
100
AcDbEntity
  8
0
 62
     0
100
AcDbLine
 10
3.402067500965979
 20
7.379543145158102
 30
0.0
 11
3.407370801824878
 21
7.384846446017001
 31
0.0
  0
LINE
  5
478
330
A6
100
AcDbEntity
  8
0
 62
     0
100
AcDbLine
 10
3.410022452254328
 20
7.38749809644645
 30
0.0
 11
3.415325753113227
 21
7.392801397305349
 31
0.0
  0
LINE
  5
479
330
A6
100
AcDbEntity
  8
0
 62
     0
100
AcDbLine
 10
3.417977403542677
 20
7.395453047734799
 30
0.0
 11
3.423280704401576
 21
7.400756348593698
 31
0.0
  0
LINE
  5
47A
330
A6
100
AcDbEntity
  8
0
 62
     0
100
AcDbLine
 10
3.425932354831025
 20
7.403407999023147
 30
0.0
 11
3.43022900279332
 21
7.407704646985442
 31
0.0
  0
LINE
  5
47B
330
A6
100
AcDbEntity
  8
0
 62
     0
100
AcDbLine
 10
3.481617013849465
 20
7.459092658041592
 30
0.0
 11
3.486920314708364
 21
7.464395958900492
 31
0.0
  0
LINE
  5
47C
330
A6
100
AcDbEntity
  8
0
 62
     0
100
AcDbLine
 10
3.489571965137813
 20
7.467047609329941
 30
0.0
 11
3.494875265996713
 21
7.47235091018884
 31
0.0
  0
LINE
  5
47D
330
A6
100
AcDbEntity
  8
0
 62
     0
100
AcDbLine
 10
3.497526916426162
 20
7.475002560618289
 30
0.0
 11
3.502830217285061
 21
7.480305861477188
 31
0.0
  0
LINE
  5
47E
330
A6
100
AcDbEntity
  8
0
 62
     0
100
AcDbLine
 10
3.505481867714511
 20
7.482957511906637
 30
0.0
 11
3.51078516857341
 21
7.488260812765537
 31
0.0
  0
LINE
  5
47F
330
A6
100
AcDbEntity
  8
0
 62
     0
100
AcDbLine
 10
3.51343681900286
 20
7.490912463194986
 30
0.0
 11
3.518740119861759
 21
7.496215764053885
 31
0.0
  0
LINE
  5
480
330
A6
100
AcDbEntity
  8
0
 62
     0
100
AcDbLine
 10
3.521391770291208
 20
7.498867414483334
 30
0.0
 11
3.526695071150108
 21
7.504170715342233
 31
0.0
  0
LINE
  5
481
330
A6
100
AcDbEntity
  8
0
 62
     0
100
AcDbLine
 10
3.529346721579557
 20
7.506822365771682
 30
0.0
 11
3.533151766871069
 21
7.510627411063194
 31
0.0
  0
LINE
  5
482
330
A6
100
AcDbEntity
  8
0
 62
     0
100
AcDbLine
 10
3.327998926396688
 20
7.284261367153219
 30
0.0
 11
3.33047293937084
 21
7.286735380127371
 31
0.0
  0
LINE
  5
483
330
A6
100
AcDbEntity
  8
0
 62
     0
100
AcDbLine
 10
3.33312458980029
 20
7.28938703055682
 30
0.0
 11
3.338427890659189
 21
7.294690331415719
 31
0.0
  0
LINE
  5
484
330
A6
100
AcDbEntity
  8
0
 62
     0
100
AcDbLine
 10
3.341079541088638
 20
7.297341981845169
 30
0.0
 11
3.346382841947538
 21
7.302645282704068
 31
0.0
  0
LINE
  5
485
330
A6
100
AcDbEntity
  8
0
 62
     0
100
AcDbLine
 10
3.349034492376987
 20
7.305296933133517
 30
0.0
 11
3.354337793235886
 21
7.310600233992416
 31
0.0
  0
LINE
  5
486
330
A6
100
AcDbEntity
  8
0
 62
     0
100
AcDbLine
 10
3.356989443665336
 20
7.313251884421865
 30
0.0
 11
3.362292744524235
 21
7.318555185280764
 31
0.0
  0
LINE
  5
487
330
A6
100
AcDbEntity
  8
0
 62
     0
100
AcDbLine
 10
3.364944394953685
 20
7.321206835710214
 30
0.0
 11
3.370247695812584
 21
7.326510136569113
 31
0.0
  0
LINE
  5
488
330
A6
100
AcDbEntity
  8
0
 62
     0
100
AcDbLine
 10
3.372899346242034
 20
7.329161786998562
 30
0.0
 11
3.378202647100933
 21
7.334465087857461
 31
0.0
  0
LINE
  5
489
330
A6
100
AcDbEntity
  8
0
 62
     0
100
AcDbLine
 10
3.380854297530382
 20
7.33711673828691
 30
0.0
 11
3.386157598389281
 21
7.342420039145809
 31
0.0
  0
LINE
  5
48A
330
A6
100
AcDbEntity
  8
0
 62
     0
100
AcDbLine
 10
3.388809248818731
 20
7.345071689575259
 30
0.0
 11
3.39411254967763
 21
7.350374990434158
 31
0.0
  0
LINE
  5
48B
330
A6
100
AcDbEntity
  8
0
 62
     0
100
AcDbLine
 10
3.39676420010708
 20
7.353026640863607
 30
0.0
 11
3.402067500965979
 21
7.358329941722506
 31
0.0
  0
LINE
  5
48C
330
A6
100
AcDbEntity
  8
0
 62
     0
100
AcDbLine
 10
3.404719151395429
 20
7.360981592151955
 30
0.0
 11
3.410022452254328
 21
7.366284893010854
 31
0.0
  0
LINE
  5
48D
330
A6
100
AcDbEntity
  8
0
 62
     0
100
AcDbLine
 10
3.412674102683777
 20
7.368936543440304
 30
0.0
 11
3.417977403542677
 21
7.374239844299203
 31
0.0
  0
LINE
  5
48E
330
A6
100
AcDbEntity
  8
0
 62
     0
100
AcDbLine
 10
3.420629053972126
 20
7.376891494728652
 30
0.0
 11
3.425932354831025
 21
7.382194795587551
 31
0.0
  0
LINE
  5
48F
330
A6
100
AcDbEntity
  8
0
 62
     0
100
AcDbLine
 10
3.428584005260475
 20
7.384846446017
 30
0.0
 11
3.433887306119374
 21
7.390149746875899
 31
0.0
  0
LINE
  5
490
330
A6
100
AcDbEntity
  8
0
 62
     0
100
AcDbLine
 10
3.436538956548824
 20
7.392801397305349
 30
0.0
 11
3.441842257407723
 21
7.398104698164248
 31
0.0
  0
LINE
  5
491
330
A6
100
AcDbEntity
  8
0
 62
     0
100
AcDbLine
 10
3.444493907837173
 20
7.400756348593697
 30
0.0
 11
3.449797208696072
 21
7.406059649452596
 31
0.0
  0
LINE
  5
492
330
A6
100
AcDbEntity
  8
0
 62
     0
100
AcDbLine
 10
3.452448859125521
 20
7.408711299882045
 30
0.0
 11
3.45775215998442
 21
7.414014600740944
 31
0.0
  0
LINE
  5
493
330
A6
100
AcDbEntity
  8
0
 62
     0
100
AcDbLine
 10
3.46040381041387
 20
7.416666251170394
 30
0.0
 11
3.465707111272769
 21
7.421969552029293
 31
0.0
  0
LINE
  5
494
330
A6
100
AcDbEntity
  8
0
 62
     0
100
AcDbLine
 10
3.468358761702219
 20
7.424621202458742
 30
0.0
 11
3.473662062561118
 21
7.429924503317641
 31
0.0
  0
LINE
  5
495
330
A6
100
AcDbEntity
  8
0
 62
     0
100
AcDbLine
 10
3.476313712990568
 20
7.43257615374709
 30
0.0
 11
3.481617013849467
 21
7.437879454605989
 31
0.0
  0
LINE
  5
496
330
A6
100
AcDbEntity
  8
0
 62
     0
100
AcDbLine
 10
3.484268664278916
 20
7.440531105035439
 30
0.0
 11
3.489571965137816
 21
7.445834405894338
 31
0.0
  0
LINE
  5
497
330
A6
100
AcDbEntity
  8
0
 62
     0
100
AcDbLine
 10
3.492223615567265
 20
7.448486056323787
 30
0.0
 11
3.497526916426164
 21
7.453789357182686
 31
0.0
  0
LINE
  5
498
330
A6
100
AcDbEntity
  8
0
 62
     0
100
AcDbLine
 10
3.500178566855614
 20
7.456441007612135
 30
0.0
 11
3.505481867714513
 21
7.461744308471034
 31
0.0
  0
LINE
  5
499
330
A6
100
AcDbEntity
  8
0
 62
     0
100
AcDbLine
 10
3.508133518143963
 20
7.464395958900484
 30
0.0
 11
3.513436819002862
 21
7.469699259759383
 31
0.0
  0
LINE
  5
49A
330
A6
100
AcDbEntity
  8
0
 62
     0
100
AcDbLine
 10
3.516088469432312
 20
7.472350910188832
 30
0.0
 11
3.521391770291211
 21
7.477654211047731
 31
0.0
  0
LINE
  5
49B
330
A6
100
AcDbEntity
  8
0
 62
     0
100
AcDbLine
 10
3.52404342072066
 20
7.48030586147718
 30
0.0
 11
3.529346721579559
 21
7.485609162336079
 31
0.0
  0
LINE
  5
49C
330
A6
100
AcDbEntity
  8
0
 62
     0
100
AcDbLine
 10
3.531998372009009
 20
7.488260812765529
 30
0.0
 11
3.533151766871071
 21
7.48941420762759
 31
0.0
  0
LINE
  5
49D
330
A6
100
AcDbEntity
  8
0
 62
     0
100
AcDbLine
 10
3.351686142806436
 20
7.286735380127371
 30
0.0
 11
3.356989443665335
 21
7.29203868098627
 31
0.0
  0
LINE
  5
49E
330
A6
100
AcDbEntity
  8
0
 62
     0
100
AcDbLine
 10
3.359641094094785
 20
7.294690331415719
 30
0.0
 11
3.364944394953684
 21
7.299993632274619
 31
0.0
  0
LINE
  5
49F
330
A6
100
AcDbEntity
  8
0
 62
     0
100
AcDbLine
 10
3.367596045383133
 20
7.302645282704068
 30
0.0
 11
3.372899346242033
 21
7.307948583562967
 31
0.0
  0
LINE
  5
4A0
330
A6
100
AcDbEntity
  8
0
 62
     0
100
AcDbLine
 10
3.375550996671482
 20
7.310600233992416
 30
0.0
 11
3.380854297530381
 21
7.315903534851315
 31
0.0
  0
LINE
  5
4A1
330
A6
100
AcDbEntity
  8
0
 62
     0
100
AcDbLine
 10
3.383505947959831
 20
7.318555185280764
 30
0.0
 11
3.38880924881873
 21
7.323858486139664
 31
0.0
  0
LINE
  5
4A2
330
A6
100
AcDbEntity
  8
0
 62
     0
100
AcDbLine
 10
3.39146089924818
 20
7.326510136569113
 30
0.0
 11
3.396764200107079
 21
7.331813437428012
 31
0.0
  0
LINE
  5
4A3
330
A6
100
AcDbEntity
  8
0
 62
     0
100
AcDbLine
 10
3.399415850536529
 20
7.334465087857461
 30
0.0
 11
3.404719151395428
 21
7.33976838871636
 31
0.0
  0
LINE
  5
4A4
330
A6
100
AcDbEntity
  8
0
 62
     0
100
AcDbLine
 10
3.407370801824877
 20
7.342420039145809
 30
0.0
 11
3.412674102683777
 21
7.347723340004709
 31
0.0
  0
LINE
  5
4A5
330
A6
100
AcDbEntity
  8
0
 62
     0
100
AcDbLine
 10
3.415325753113226
 20
7.350374990434158
 30
0.0
 11
3.420629053972125
 21
7.355678291293057
 31
0.0
  0
LINE
  5
4A6
330
A6
100
AcDbEntity
  8
0
 62
     0
100
AcDbLine
 10
3.423280704401575
 20
7.358329941722506
 30
0.0
 11
3.428584005260474
 21
7.363633242581405
 31
0.0
  0
LINE
  5
4A7
330
A6
100
AcDbEntity
  8
0
 62
     0
100
AcDbLine
 10
3.431235655689924
 20
7.366284893010854
 30
0.0
 11
3.436538956548823
 21
7.371588193869754
 31
0.0
  0
LINE
  5
4A8
330
A6
100
AcDbEntity
  8
0
 62
     0
100
AcDbLine
 10
3.439190606978272
 20
7.374239844299203
 30
0.0
 11
3.444493907837172
 21
7.379543145158102
 31
0.0
  0
LINE
  5
4A9
330
A6
100
AcDbEntity
  8
0
 62
     0
100
AcDbLine
 10
3.447145558266621
 20
7.382194795587551
 30
0.0
 11
3.45244885912552
 21
7.38749809644645
 31
0.0
  0
LINE
  5
4AA
330
A6
100
AcDbEntity
  8
0
 62
     0
100
AcDbLine
 10
3.45510050955497
 20
7.390149746875899
 30
0.0
 11
3.460403810413869
 21
7.395453047734799
 31
0.0
  0
LINE
  5
4AB
330
A6
100
AcDbEntity
  8
0
 62
     0
100
AcDbLine
 10
3.463055460843319
 20
7.398104698164248
 30
0.0
 11
3.468358761702218
 21
7.403407999023147
 31
0.0
  0
LINE
  5
4AC
330
A6
100
AcDbEntity
  8
0
 62
     0
100
AcDbLine
 10
3.471010412131668
 20
7.406059649452596
 30
0.0
 11
3.476313712990567
 21
7.411362950311495
 31
0.0
  0
LINE
  5
4AD
330
A6
100
AcDbEntity
  8
0
 62
     0
100
AcDbLine
 10
3.478965363420016
 20
7.414014600740944
 30
0.0
 11
3.484268664278916
 21
7.419317901599844
 31
0.0
  0
LINE
  5
4AE
330
A6
100
AcDbEntity
  8
0
 62
     0
100
AcDbLine
 10
3.486920314708365
 20
7.421969552029293
 30
0.0
 11
3.492223615567264
 21
7.427272852888192
 31
0.0
  0
LINE
  5
4AF
330
A6
100
AcDbEntity
  8
0
 62
     0
100
AcDbLine
 10
3.494875265996714
 20
7.429924503317641
 30
0.0
 11
3.500178566855613
 21
7.43522780417654
 31
0.0
  0
LINE
  5
4B0
330
A6
100
AcDbEntity
  8
0
 62
     0
100
AcDbLine
 10
3.502830217285063
 20
7.437879454605989
 30
0.0
 11
3.508133518143962
 21
7.443182755464889
 31
0.0
  0
LINE
  5
4B1
330
A6
100
AcDbEntity
  8
0
 62
     0
100
AcDbLine
 10
3.510785168573411
 20
7.445834405894338
 30
0.0
 11
3.516088469432311
 21
7.451137706753237
 31
0.0
  0
LINE
  5
4B2
330
A6
100
AcDbEntity
  8
0
 62
     0
100
AcDbLine
 10
3.51874011986176
 20
7.453789357182686
 30
0.0
 11
3.524043420720659
 21
7.459092658041585
 31
0.0
  0
LINE
  5
4B3
330
A6
100
AcDbEntity
  8
0
 62
     0
100
AcDbLine
 10
3.526695071150109
 20
7.461744308471034
 30
0.0
 11
3.531998372009008
 21
7.467047609329934
 31
0.0
  0
LINE
  5
4B4
330
A6
100
AcDbEntity
  8
0
 62
     0
100
AcDbLine
 10
3.37042533326788
 20
7.284261367153219
 30
0.0
 11
3.375550996671482
 21
7.289387030556821
 31
0.0
  0
LINE
  5
4B5
330
A6
100
AcDbEntity
  8
0
 62
     0
100
AcDbLine
 10
3.378202647100931
 20
7.29203868098627
 30
0.0
 11
3.383505947959831
 21
7.297341981845169
 31
0.0
  0
LINE
  5
4B6
330
A6
100
AcDbEntity
  8
0
 62
     0
100
AcDbLine
 10
3.38615759838928
 20
7.299993632274619
 30
0.0
 11
3.391460899248179
 21
7.305296933133518
 31
0.0
  0
LINE
  5
4B7
330
A6
100
AcDbEntity
  8
0
 62
     0
100
AcDbLine
 10
3.394112549677629
 20
7.307948583562967
 30
0.0
 11
3.399415850536528
 21
7.313251884421866
 31
0.0
  0
LINE
  5
4B8
330
A6
100
AcDbEntity
  8
0
 62
     0
100
AcDbLine
 10
3.402067500965978
 20
7.315903534851315
 30
0.0
 11
3.407370801824877
 21
7.321206835710214
 31
0.0
  0
LINE
  5
4B9
330
A6
100
AcDbEntity
  8
0
 62
     0
100
AcDbLine
 10
3.410022452254326
 20
7.323858486139664
 30
0.0
 11
3.415325753113226
 21
7.329161786998563
 31
0.0
  0
LINE
  5
4BA
330
A6
100
AcDbEntity
  8
0
 62
     0
100
AcDbLine
 10
3.417977403542675
 20
7.331813437428012
 30
0.0
 11
3.423280704401574
 21
7.337116738286911
 31
0.0
  0
LINE
  5
4BB
330
A6
100
AcDbEntity
  8
0
 62
     0
100
AcDbLine
 10
3.425932354831024
 20
7.33976838871636
 30
0.0
 11
3.431235655689923
 21
7.345071689575259
 31
0.0
  0
LINE
  5
4BC
330
A6
100
AcDbEntity
  8
0
 62
     0
100
AcDbLine
 10
3.433887306119373
 20
7.347723340004709
 30
0.0
 11
3.439190606978272
 21
7.353026640863608
 31
0.0
  0
LINE
  5
4BD
330
A6
100
AcDbEntity
  8
0
 62
     0
100
AcDbLine
 10
3.441842257407722
 20
7.355678291293057
 30
0.0
 11
3.447145558266621
 21
7.360981592151956
 31
0.0
  0
LINE
  5
4BE
330
A6
100
AcDbEntity
  8
0
 62
     0
100
AcDbLine
 10
3.44979720869607
 20
7.363633242581405
 30
0.0
 11
3.45510050955497
 21
7.368936543440304
 31
0.0
  0
LINE
  5
4BF
330
A6
100
AcDbEntity
  8
0
 62
     0
100
AcDbLine
 10
3.457752159984419
 20
7.371588193869754
 30
0.0
 11
3.463055460843318
 21
7.376891494728653
 31
0.0
  0
LINE
  5
4C0
330
A6
100
AcDbEntity
  8
0
 62
     0
100
AcDbLine
 10
3.465707111272768
 20
7.379543145158102
 30
0.0
 11
3.471010412131667
 21
7.384846446017001
 31
0.0
  0
LINE
  5
4C1
330
A6
100
AcDbEntity
  8
0
 62
     0
100
AcDbLine
 10
3.473662062561117
 20
7.38749809644645
 30
0.0
 11
3.478965363420016
 21
7.392801397305349
 31
0.0
  0
LINE
  5
4C2
330
A6
100
AcDbEntity
  8
0
 62
     0
100
AcDbLine
 10
3.481617013849465
 20
7.395453047734799
 30
0.0
 11
3.486920314708365
 21
7.400756348593698
 31
0.0
  0
LINE
  5
4C3
330
A6
100
AcDbEntity
  8
0
 62
     0
100
AcDbLine
 10
3.489571965137814
 20
7.403407999023147
 30
0.0
 11
3.494875265996713
 21
7.408711299882046
 31
0.0
  0
LINE
  5
4C4
330
A6
100
AcDbEntity
  8
0
 62
     0
100
AcDbLine
 10
3.497526916426163
 20
7.411362950311495
 30
0.0
 11
3.502830217285062
 21
7.416666251170394
 31
0.0
  0
LINE
  5
4C5
330
A6
100
AcDbEntity
  8
0
 62
     0
100
AcDbLine
 10
3.505481867714512
 20
7.419317901599844
 30
0.0
 11
3.510785168573411
 21
7.424621202458743
 31
0.0
  0
LINE
  5
4C6
330
A6
100
AcDbEntity
  8
0
 62
     0
100
AcDbLine
 10
3.513436819002861
 20
7.427272852888192
 30
0.0
 11
3.51874011986176
 21
7.432576153747091
 31
0.0
  0
LINE
  5
4C7
330
A6
100
AcDbEntity
  8
0
 62
     0
100
AcDbLine
 10
3.521391770291209
 20
7.43522780417654
 30
0.0
 11
3.526695071150109
 21
7.440531105035439
 31
0.0
  0
LINE
  5
4C8
330
A6
100
AcDbEntity
  8
0
 62
     0
100
AcDbLine
 10
3.529346721579558
 20
7.443182755464889
 30
0.0
 11
3.53315176687107
 21
7.4469878007564
 31
0.0
  0
LINE
  5
4C9
330
A6
100
AcDbEntity
  8
0
 62
     0
100
AcDbLine
 10
3.391638536703477
 20
7.284261367153219
 30
0.0
 11
3.394112549677629
 21
7.286735380127371
 31
0.0
  0
LINE
  5
4CA
330
A6
100
AcDbEntity
  8
0
 62
     0
100
AcDbLine
 10
3.396764200107079
 20
7.28938703055682
 30
0.0
 11
3.402067500965978
 21
7.294690331415719
 31
0.0
  0
LINE
  5
4CB
330
A6
100
AcDbEntity
  8
0
 62
     0
100
AcDbLine
 10
3.404719151395427
 20
7.297341981845169
 30
0.0
 11
3.410022452254326
 21
7.302645282704068
 31
0.0
  0
LINE
  5
4CC
330
A6
100
AcDbEntity
  8
0
 62
     0
100
AcDbLine
 10
3.412674102683776
 20
7.305296933133517
 30
0.0
 11
3.417977403542675
 21
7.310600233992416
 31
0.0
  0
LINE
  5
4CD
330
A6
100
AcDbEntity
  8
0
 62
     0
100
AcDbLine
 10
3.420629053972125
 20
7.313251884421865
 30
0.0
 11
3.425932354831024
 21
7.318555185280764
 31
0.0
  0
LINE
  5
4CE
330
A6
100
AcDbEntity
  8
0
 62
     0
100
AcDbLine
 10
3.428584005260474
 20
7.321206835710214
 30
0.0
 11
3.433887306119373
 21
7.326510136569113
 31
0.0
  0
LINE
  5
4CF
330
A6
100
AcDbEntity
  8
0
 62
     0
100
AcDbLine
 10
3.436538956548822
 20
7.329161786998562
 30
0.0
 11
3.441842257407722
 21
7.334465087857461
 31
0.0
  0
LINE
  5
4D0
330
A6
100
AcDbEntity
  8
0
 62
     0
100
AcDbLine
 10
3.444493907837171
 20
7.33711673828691
 30
0.0
 11
3.44979720869607
 21
7.342420039145809
 31
0.0
  0
LINE
  5
4D1
330
A6
100
AcDbEntity
  8
0
 62
     0
100
AcDbLine
 10
3.45244885912552
 20
7.345071689575259
 30
0.0
 11
3.457752159984419
 21
7.350374990434158
 31
0.0
  0
LINE
  5
4D2
330
A6
100
AcDbEntity
  8
0
 62
     0
100
AcDbLine
 10
3.460403810413869
 20
7.353026640863607
 30
0.0
 11
3.465707111272768
 21
7.358329941722506
 31
0.0
  0
LINE
  5
4D3
330
A6
100
AcDbEntity
  8
0
 62
     0
100
AcDbLine
 10
3.468358761702218
 20
7.360981592151955
 30
0.0
 11
3.473662062561117
 21
7.366284893010854
 31
0.0
  0
LINE
  5
4D4
330
A6
100
AcDbEntity
  8
0
 62
     0
100
AcDbLine
 10
3.476313712990566
 20
7.368936543440304
 30
0.0
 11
3.481617013849465
 21
7.374239844299203
 31
0.0
  0
LINE
  5
4D5
330
A6
100
AcDbEntity
  8
0
 62
     0
100
AcDbLine
 10
3.484268664278915
 20
7.376891494728652
 30
0.0
 11
3.489571965137814
 21
7.382194795587551
 31
0.0
  0
LINE
  5
4D6
330
A6
100
AcDbEntity
  8
0
 62
     0
100
AcDbLine
 10
3.492223615567264
 20
7.384846446017
 30
0.0
 11
3.497526916426163
 21
7.390149746875899
 31
0.0
  0
LINE
  5
4D7
330
A6
100
AcDbEntity
  8
0
 62
     0
100
AcDbLine
 10
3.500178566855613
 20
7.392801397305349
 30
0.0
 11
3.505481867714512
 21
7.398104698164248
 31
0.0
  0
LINE
  5
4D8
330
A6
100
AcDbEntity
  8
0
 62
     0
100
AcDbLine
 10
3.508133518143961
 20
7.400756348593697
 30
0.0
 11
3.513436819002861
 21
7.406059649452596
 31
0.0
  0
LINE
  5
4D9
330
A6
100
AcDbEntity
  8
0
 62
     0
100
AcDbLine
 10
3.51608846943231
 20
7.408711299882045
 30
0.0
 11
3.521391770291209
 21
7.414014600740944
 31
0.0
  0
LINE
  5
4DA
330
A6
100
AcDbEntity
  8
0
 62
     0
100
AcDbLine
 10
3.524043420720659
 20
7.416666251170394
 30
0.0
 11
3.529346721579558
 21
7.421969552029293
 31
0.0
  0
LINE
  5
4DB
330
A6
100
AcDbEntity
  8
0
 62
     0
100
AcDbLine
 10
3.531998372009008
 20
7.424621202458742
 30
0.0
 11
3.533151766871069
 21
7.425774597320804
 31
0.0
  0
LINE
  5
4DC
330
A6
100
AcDbEntity
  8
0
 62
     0
100
AcDbLine
 10
3.415325753113225
 20
7.286735380127371
 30
0.0
 11
3.420629053972124
 21
7.29203868098627
 31
0.0
  0
LINE
  5
4DD
330
A6
100
AcDbEntity
  8
0
 62
     0
100
AcDbLine
 10
3.423280704401574
 20
7.294690331415719
 30
0.0
 11
3.428584005260473
 21
7.299993632274619
 31
0.0
  0
LINE
  5
4DE
330
A6
100
AcDbEntity
  8
0
 62
     0
100
AcDbLine
 10
3.431235655689922
 20
7.302645282704068
 30
0.0
 11
3.436538956548822
 21
7.307948583562967
 31
0.0
  0
LINE
  5
4DF
330
A6
100
AcDbEntity
  8
0
 62
     0
100
AcDbLine
 10
3.439190606978271
 20
7.310600233992416
 30
0.0
 11
3.44449390783717
 21
7.315903534851315
 31
0.0
  0
LINE
  5
4E0
330
A6
100
AcDbEntity
  8
0
 62
     0
100
AcDbLine
 10
3.44714555826662
 20
7.318555185280764
 30
0.0
 11
3.452448859125519
 21
7.323858486139664
 31
0.0
  0
LINE
  5
4E1
330
A6
100
AcDbEntity
  8
0
 62
     0
100
AcDbLine
 10
3.455100509554969
 20
7.326510136569113
 30
0.0
 11
3.460403810413868
 21
7.331813437428012
 31
0.0
  0
LINE
  5
4E2
330
A6
100
AcDbEntity
  8
0
 62
     0
100
AcDbLine
 10
3.463055460843317
 20
7.334465087857461
 30
0.0
 11
3.468358761702217
 21
7.33976838871636
 31
0.0
  0
LINE
  5
4E3
330
A6
100
AcDbEntity
  8
0
 62
     0
100
AcDbLine
 10
3.471010412131666
 20
7.342420039145809
 30
0.0
 11
3.476313712990565
 21
7.347723340004709
 31
0.0
  0
LINE
  5
4E4
330
A6
100
AcDbEntity
  8
0
 62
     0
100
AcDbLine
 10
3.478965363420015
 20
7.350374990434158
 30
0.0
 11
3.484268664278914
 21
7.355678291293057
 31
0.0
  0
LINE
  5
4E5
330
A6
100
AcDbEntity
  8
0
 62
     0
100
AcDbLine
 10
3.486920314708364
 20
7.358329941722506
 30
0.0
 11
3.492223615567263
 21
7.363633242581405
 31
0.0
  0
LINE
  5
4E6
330
A6
100
AcDbEntity
  8
0
 62
     0
100
AcDbLine
 10
3.494875265996713
 20
7.366284893010854
 30
0.0
 11
3.500178566855612
 21
7.371588193869754
 31
0.0
  0
LINE
  5
4E7
330
A6
100
AcDbEntity
  8
0
 62
     0
100
AcDbLine
 10
3.502830217285061
 20
7.374239844299203
 30
0.0
 11
3.508133518143961
 21
7.379543145158102
 31
0.0
  0
LINE
  5
4E8
330
A6
100
AcDbEntity
  8
0
 62
     0
100
AcDbLine
 10
3.51078516857341
 20
7.382194795587551
 30
0.0
 11
3.516088469432309
 21
7.38749809644645
 31
0.0
  0
LINE
  5
4E9
330
A6
100
AcDbEntity
  8
0
 62
     0
100
AcDbLine
 10
3.518740119861759
 20
7.390149746875899
 30
0.0
 11
3.524043420720658
 21
7.395453047734799
 31
0.0
  0
LINE
  5
4EA
330
A6
100
AcDbEntity
  8
0
 62
     0
100
AcDbLine
 10
3.526695071150108
 20
7.398104698164248
 30
0.0
 11
3.531998372009007
 21
7.403407999023147
 31
0.0
  0
LINE
  5
4EB
330
A6
100
AcDbEntity
  8
0
 62
     0
100
AcDbLine
 10
3.43406494357467
 20
7.284261367153219
 30
0.0
 11
3.439190606978272
 21
7.289387030556821
 31
0.0
  0
LINE
  5
4EC
330
A6
100
AcDbEntity
  8
0
 62
     0
100
AcDbLine
 10
3.441842257407721
 20
7.29203868098627
 30
0.0
 11
3.44714555826662
 21
7.297341981845169
 31
0.0
  0
LINE
  5
4ED
330
A6
100
AcDbEntity
  8
0
 62
     0
100
AcDbLine
 10
3.44979720869607
 20
7.299993632274619
 30
0.0
 11
3.455100509554969
 21
7.305296933133518
 31
0.0
  0
LINE
  5
4EE
330
A6
100
AcDbEntity
  8
0
 62
     0
100
AcDbLine
 10
3.457752159984419
 20
7.307948583562967
 30
0.0
 11
3.463055460843318
 21
7.313251884421866
 31
0.0
  0
LINE
  5
4EF
330
A6
100
AcDbEntity
  8
0
 62
     0
100
AcDbLine
 10
3.465707111272767
 20
7.315903534851315
 30
0.0
 11
3.471010412131667
 21
7.321206835710214
 31
0.0
  0
LINE
  5
4F0
330
A6
100
AcDbEntity
  8
0
 62
     0
100
AcDbLine
 10
3.473662062561116
 20
7.323858486139664
 30
0.0
 11
3.478965363420015
 21
7.329161786998563
 31
0.0
  0
LINE
  5
4F1
330
A6
100
AcDbEntity
  8
0
 62
     0
100
AcDbLine
 10
3.481617013849465
 20
7.331813437428012
 30
0.0
 11
3.486920314708364
 21
7.337116738286911
 31
0.0
  0
LINE
  5
4F2
330
A6
100
AcDbEntity
  8
0
 62
     0
100
AcDbLine
 10
3.489571965137814
 20
7.33976838871636
 30
0.0
 11
3.494875265996713
 21
7.345071689575259
 31
0.0
  0
LINE
  5
4F3
330
A6
100
AcDbEntity
  8
0
 62
     0
100
AcDbLine
 10
3.497526916426163
 20
7.347723340004709
 30
0.0
 11
3.502830217285062
 21
7.353026640863608
 31
0.0
  0
LINE
  5
4F4
330
A6
100
AcDbEntity
  8
0
 62
     0
100
AcDbLine
 10
3.505481867714511
 20
7.355678291293057
 30
0.0
 11
3.510785168573411
 21
7.360981592151956
 31
0.0
  0
LINE
  5
4F5
330
A6
100
AcDbEntity
  8
0
 62
     0
100
AcDbLine
 10
3.51343681900286
 20
7.363633242581405
 30
0.0
 11
3.518740119861759
 21
7.368936543440304
 31
0.0
  0
LINE
  5
4F6
330
A6
100
AcDbEntity
  8
0
 62
     0
100
AcDbLine
 10
3.521391770291209
 20
7.371588193869754
 30
0.0
 11
3.526695071150108
 21
7.376891494728653
 31
0.0
  0
LINE
  5
4F7
330
A6
100
AcDbEntity
  8
0
 62
     0
100
AcDbLine
 10
3.529346721579558
 20
7.379543145158102
 30
0.0
 11
3.533151766871069
 21
7.383348190449614
 31
0.0
  0
LINE
  5
4F8
330
A6
100
AcDbEntity
  8
0
 62
     0
100
AcDbLine
 10
3.455278147010266
 20
7.284261367153219
 30
0.0
 11
3.457752159984418
 21
7.286735380127371
 31
0.0
  0
LINE
  5
4F9
330
A6
100
AcDbEntity
  8
0
 62
     0
100
AcDbLine
 10
3.460403810413868
 20
7.28938703055682
 30
0.0
 11
3.465707111272767
 21
7.294690331415719
 31
0.0
  0
LINE
  5
4FA
330
A6
100
AcDbEntity
  8
0
 62
     0
100
AcDbLine
 10
3.468358761702217
 20
7.297341981845169
 30
0.0
 11
3.473662062561116
 21
7.302645282704068
 31
0.0
  0
LINE
  5
4FB
330
A6
100
AcDbEntity
  8
0
 62
     0
100
AcDbLine
 10
3.476313712990565
 20
7.305296933133517
 30
0.0
 11
3.481617013849465
 21
7.310600233992416
 31
0.0
  0
LINE
  5
4FC
330
A6
100
AcDbEntity
  8
0
 62
     0
100
AcDbLine
 10
3.484268664278914
 20
7.313251884421865
 30
0.0
 11
3.489571965137813
 21
7.318555185280764
 31
0.0
  0
LINE
  5
4FD
330
A6
100
AcDbEntity
  8
0
 62
     0
100
AcDbLine
 10
3.492223615567263
 20
7.321206835710214
 30
0.0
 11
3.497526916426162
 21
7.326510136569113
 31
0.0
  0
LINE
  5
4FE
330
A6
100
AcDbEntity
  8
0
 62
     0
100
AcDbLine
 10
3.500178566855612
 20
7.329161786998562
 30
0.0
 11
3.505481867714511
 21
7.334465087857461
 31
0.0
  0
LINE
  5
4FF
330
A6
100
AcDbEntity
  8
0
 62
     0
100
AcDbLine
 10
3.508133518143961
 20
7.33711673828691
 30
0.0
 11
3.51343681900286
 21
7.342420039145809
 31
0.0
  0
LINE
  5
500
330
A6
100
AcDbEntity
  8
0
 62
     0
100
AcDbLine
 10
3.516088469432309
 20
7.345071689575259
 30
0.0
 11
3.521391770291208
 21
7.350374990434158
 31
0.0
  0
LINE
  5
501
330
A6
100
AcDbEntity
  8
0
 62
     0
100
AcDbLine
 10
3.524043420720658
 20
7.353026640863607
 30
0.0
 11
3.529346721579557
 21
7.358329941722506
 31
0.0
  0
LINE
  5
502
330
A6
100
AcDbEntity
  8
0
 62
     0
100
AcDbLine
 10
3.531998372009007
 20
7.360981592151955
 30
0.0
 11
3.533151766871069
 21
7.362134987014017
 31
0.0
  0
LINE
  5
503
330
A6
100
AcDbEntity
  8
0
 62
     0
100
AcDbLine
 10
3.478965363420015
 20
7.286735380127371
 30
0.0
 11
3.484268664278914
 21
7.29203868098627
 31
0.0
  0
LINE
  5
504
330
A6
100
AcDbEntity
  8
0
 62
     0
100
AcDbLine
 10
3.486920314708363
 20
7.294690331415719
 30
0.0
 11
3.492223615567263
 21
7.299993632274619
 31
0.0
  0
LINE
  5
505
330
A6
100
AcDbEntity
  8
0
 62
     0
100
AcDbLine
 10
3.494875265996712
 20
7.302645282704068
 30
0.0
 11
3.500178566855611
 21
7.307948583562967
 31
0.0
  0
LINE
  5
506
330
A6
100
AcDbEntity
  8
0
 62
     0
100
AcDbLine
 10
3.502830217285061
 20
7.310600233992416
 30
0.0
 11
3.50813351814396
 21
7.315903534851315
 31
0.0
  0
LINE
  5
507
330
A6
100
AcDbEntity
  8
0
 62
     0
100
AcDbLine
 10
3.51078516857341
 20
7.318555185280764
 30
0.0
 11
3.516088469432309
 21
7.323858486139664
 31
0.0
  0
LINE
  5
508
330
A6
100
AcDbEntity
  8
0
 62
     0
100
AcDbLine
 10
3.518740119861758
 20
7.326510136569113
 30
0.0
 11
3.524043420720658
 21
7.331813437428012
 31
0.0
  0
LINE
  5
509
330
A6
100
AcDbEntity
  8
0
 62
     0
100
AcDbLine
 10
3.526695071150107
 20
7.334465087857461
 30
0.0
 11
3.531998372009006
 21
7.33976838871636
 31
0.0
  0
LINE
  5
50A
330
A6
100
AcDbEntity
  8
0
 62
     0
100
AcDbLine
 10
3.500907754913416
 20
7.287464568185177
 30
0.0
 11
3.502830217285061
 21
7.289387030556821
 31
0.0
  0
LINE
  5
50B
330
A6
100
AcDbEntity
  8
0
 62
     0
100
AcDbLine
 10
3.50548186771451
 20
7.29203868098627
 30
0.0
 11
3.51078516857341
 21
7.297341981845169
 31
0.0
  0
LINE
  5
50C
330
A6
100
AcDbEntity
  8
0
 62
     0
100
AcDbLine
 10
3.513436819002859
 20
7.299993632274619
 30
0.0
 11
3.518740119861758
 21
7.305296933133518
 31
0.0
  0
LINE
  5
50D
330
A6
100
AcDbEntity
  8
0
 62
     0
100
AcDbLine
 10
3.521391770291208
 20
7.307948583562967
 30
0.0
 11
3.526695071150107
 21
7.313251884421866
 31
0.0
  0
LINE
  5
50E
330
A6
100
AcDbEntity
  8
0
 62
     0
100
AcDbLine
 10
3.529346721579557
 20
7.315903534851315
 30
0.0
 11
3.529948565839113
 21
7.316505379110871
 31
0.0
  0
ENDBLK
  5
50F
330
A6
100
AcDbEntity
  8
0
100
AcDbBlockEnd
  0
BLOCK
  5
511
330
510
100
AcDbEntity
  8
0
100
AcDbBlockBegin
  2
CF
 70
     0
 10
0.0
 20
0.0
 30
0.0
  3
CF
  1

  0
LWPOLYLINE
  5
512
330
510
100
AcDbEntity
  8
CF
100
AcDbPolyline
 90
        6
 70
     1
 43
0.0
 10
-0.0757283275098253
 20
0.1013897621710595
 10
-0.127235189476858
 20
0.0308118469683065
 42
0.6135301966768088
 10
-0.0515068619670327
 20
-0.1182037201830827
 10
0.0515068619670327
 20
-0.1182037201830827
 42
0.6135301966768086
 10
0.127235189476858
 20
0.0308118469683064
 10
0.0757283275098253
 20
0.1013897621710595
 42
0.5081907142821543
  0
TEXT
  5
513
330
510
100
AcDbEntity
  8
CF
100
AcDbText
 10
-0.078125
 20
-0.046875
 30
0.0
 40
0.09375
  1
CF
 72
     4
 11
0.0
 21
0.0
 31
0.0
100
AcDbText
  0
ENDBLK
  5
514
330
510
100
AcDbEntity
  8
0
100
AcDbBlockEnd
  0
BLOCK
  5
57F
330
520
100
AcDbEntity
  8
0
100
AcDbBlockBegin
  2
titleblk
 70
     2
 10
0.0
 20
0.0
 30
0.0
  3
titleblk
  1

  0
LINE
  5
521
330
520
100
AcDbEntity
  8
TB
100
AcDbLine
 10
-6.25
 20
1.124999999999999
 30
0.0
 11
-4.25
 21
1.125
 31
0.0
  0
TEXT
  5
522
330
520
100
AcDbEntity
  8
HUBBELL
100
AcDbText
 10
-6.223202370744047
 20
0.1661534600872032
 30
0.0
 40
0.0625
  1
ALL RIGHTS RESERVED UNDER THE
  7
ADESK1
100
AcDbText
  0
TEXT
  5
523
330
520
100
AcDbEntity
  8
HUBBELL
100
AcDbText
 10
-6.223202370744047
 20
0.2673439362776795
 30
0.0
 40
0.0625
  1
HUBBELL POWER SYSTEMS UNPUBLISHED
  7
ADESK1
100
AcDbText
  0
TEXT
  5
524
330
520
100
AcDbEntity
  8
HUBBELL
100
AcDbText
 10
-6.223202370744047
 20
0.3685344124681558
 30
0.0
 40
0.0625
  1
HUBBELL POWER SYSTEMS.
  7
ADESK1
100
AcDbText
  0
TEXT
  5
525
330
520
100
AcDbEntity
  8
HUBBELL
100
AcDbText
 10
-6.223202370744047
 20
0.4697248886586321
 30
0.0
 40
0.0625
  1
WITHOUT THE WRITTEN CONSENT OF
  7
ADESK1
100
AcDbText
  0
TEXT
  5
526
330
520
100
AcDbEntity
  8
HUBBELL
100
AcDbText
 10
-6.223202370744047
 20
0.5709153648491084
 30
0.0
 40
0.0625
  1
DISTRIBUTION OR COPIES MAY BE MADE
  7
ADESK1
100
AcDbText
  0
TEXT
  5
527
330
520
100
AcDbEntity
  8
HUBBELL
100
AcDbText
 10
-6.223202370744047
 20
0.6721058410395848
 30
0.0
 40
0.0625
  1
POWER SYSTEMS. NO PUBLICATION,
  7
ADESK1
100
AcDbText
  0
TEXT
  5
528
330
520
100
AcDbEntity
  8
HUBBELL
100
AcDbText
 10
-6.223202370744047
 20
0.773296317230061
 30
0.0
 40
0.0625
  1
EXCLUSIVE PROPERTY OF HUBBELL
  7
ADESK1
100
AcDbText
  0
TEXT
  5
529
330
520
100
AcDbEntity
  8
HUBBELL
100
AcDbText
 10
-6.223202370744047
 20
0.8744867934205371
 30
0.0
 40
0.0625
  1
CONTENTS ARE CONFIDENTIAL AND THE
  7
ADESK1
100
AcDbText
  0
TEXT
  5
52A
330
520
100
AcDbEntity
  8
HUBBELL
100
AcDbText
 10
-6.223202370744047
 20
0.9756772696110134
 30
0.0
 40
0.0625
  1
CONFIDENTIAL: THIS DRAWING AND ITS
  7
ADESK1
100
AcDbText
  0
LINE
  5
52B
330
520
100
AcDbEntity
  8
TB
100
AcDbLine
 10
-6.25
 20
1.75
 30
0.0
 11
0.0
 21
1.75
 31
0.0
  0
LINE
  5
52C
330
520
100
AcDbEntity
  8
TB
100
AcDbLine
 10
-6.25
 20
0.0
 30
0.0
 11
-6.25
 21
1.75
 31
0.0
  0
TEXT
  5
52D
330
520
100
AcDbEntity
  8
HUBBELL
100
AcDbText
 10
-6.223202370744047
 20
0.064962983896727
 30
0.0
 40
0.0625
  1
COPYRIGHT LAWS.
  7
ADESK1
100
AcDbText
  0
TEXT
  5
52E
330
520
100
AcDbEntity
  8
HUBBELL
100
AcDbText
 10
-3.384311086510962
 20
1.29629982911496
 30
0.0
 40
0.4106500343966673
  1
HUBBELL POWER SYSTEMS
 41
0.4032456425231652
  7
ADESK1
 72
     5
 11
-0.0566836006837548
 21
1.29629982911496
 31
0.0
100
AcDbText
  0
TEXT
  5
52F
330
520
100
AcDbEntity
  8
TB
100
AcDbText
 10
-2.429000000000002
 20
0.5159000000000001
 30
0.0
 40
0.065
  1
CAT / PART / ASSY NO.
  7
ADESK1
100
AcDbText
  0
LINE
  5
530
330
520
100
AcDbEntity
  8
TB
100
AcDbLine
 10
-4.25
 20
1.25
 30
0.0
 11
0.0
 21
1.25
 31
0.0
  0
LINE
  5
531
330
520
100
AcDbEntity
  8
TB
100
AcDbLine
 10
-4.25
 20
0.25
 30
0.0
 11
0.0
 21
0.25
 31
0.0
  0
LINE
  5
532
330
520
100
AcDbEntity
  8
TB
100
AcDbLine
 10
-4.25
 20
0.63
 30
0.0
 11
0.0
 21
0.63
 31
0.0
  0
LINE
  5
533
330
520
100
AcDbEntity
  8
TB
100
AcDbLine
 10
-4.25
 20
0.0
 30
0.0
 11
-4.25
 21
1.75
 31
0.0
  0
TEXT
  5
534
330
520
100
AcDbEntity
  8
TB
100
AcDbText
 10
-3.801099999999991
 20
0.5159000000000001
 30
0.0
 40
0.065
  1
DWG NO.
  7
ADESK1
100
AcDbText
  0
LINE
  5
535
330
520
100
AcDbEntity
  8
TB
100
AcDbLine
 10
-3.870000000000004
 20
0.25
 30
0.0
 11
-3.870000000000004
 21
0.63
 31
0.0
  0
TEXT
  5
536
330
520
100
AcDbEntity
  8
TB
100
AcDbText
 10
-4.197699999999997
 20
0.0488345501787132
 30
0.0
 40
0.065
  1
THIS DRAWING
  7
ADESK1
100
AcDbText
  0
TEXT
  5
537
330
520
100
AcDbEntity
  8
TB
100
AcDbText
 10
-4.197699999999997
 20
0.1518849922396891
 30
0.0
 40
0.065
  1
DO NOT SCALE
  7
ADESK1
100
AcDbText
  0
TEXT
  5
538
330
520
100
AcDbEntity
  8
TB
100
AcDbText
 10
-4.162100000000009
 20
0.5159000000000001
 30
0.0
 40
0.065
  1
SIZE
  7
ADESK1
100
AcDbText
  0
LINE
  5
539
330
520
100
AcDbEntity
  8
TB
100
AcDbLine
 10
-2.5
 20
0.25
 30
0.0
 11
-2.5
 21
0.63
 31
0.0
  0
TEXT
  5
53A
330
520
100
AcDbEntity
  8
TB
100
AcDbText
 10
-3.191764130496949
 20
0.0925
 30
0.0
 40
0.065
  1
DRN BY
  7
ADESK1
100
AcDbText
  0
LINE
  5
53B
330
520
100
AcDbEntity
  8
TB
100
AcDbLine
 10
-3.25
 20
0.0
 30
0.0
 11
-3.25
 21
0.25
 31
0.0
  0
TEXT
  5
53C
330
520
100
AcDbEntity
  8
TB
100
AcDbText
 10
-2.191764130496949
 20
0.0925
 30
0.0
 40
0.065
  1
DATE
  7
ADESK1
100
AcDbText
  0
LINE
  5
53D
330
520
100
AcDbEntity
  8
TB
100
AcDbLine
 10
-2.25
 20
0.0
 30
0.0
 11
-2.25
 21
0.25
 31
0.0
  0
LWPOLYLINE
  5
53E
330
520
100
AcDbEntity
  8
HUBBELL
 62
     7
100
AcDbPolyline
 90
        9
 70
     0
 43
0.0
 10
-3.874963631206769
 20
1.492187490067518
 42
0.0225820644691772
 10
-3.871730472996879
 20
1.472596027171204
 42
0.0660836885971876
 10
-3.859611286682077
 20
1.438410261213157
 42
0.1046981851423404
 10
-3.838464095842964
 20
1.412328738324923
 42
0.1718785820284506
 10
-3.818830137251501
 20
1.405373964762168
 42
0.1718785820284522
 10
-3.799196178660038
 20
1.412328738324923
 42
0.104698185142341
 10
-3.778048987820924
 20
1.438410261213157
 42
0.0660836885971958
 10
-3.765929801506122
 20
1.472596027171204
 42
0.0225820644691894
 10
-3.762696643296183
 20
1.492187490067518
 42
0.0522252130559461
  0
LWPOLYLINE
  5
53F
330
520
100
AcDbEntity
  8
HUBBELL
 62
     7
100
AcDbPolyline
 90
        7
 70
     0
 43
0.0
 10
-3.984472786132434
 20
1.492187490067518
 42
0.1396134836742874
 10
-3.938624763703812
 20
1.438410261213157
 42
0.0797437238685962
 10
-3.886244367551578
 20
1.414499207398607
 42
0.0673731777091956
 10
-3.818830137251501
 20
1.405373964762168
 42
0.0673731777091966
 10
-3.751415906951423
 20
1.414499207398607
 42
0.0797437238685986
 10
-3.699035510799189
 20
1.438410261213157
 42
0.1396134836742535
 10
-3.653187488370592
 20
1.492187490067518
 42
0.0112575158592222
  0
LWPOLYLINE
  5
540
330
520
100
AcDbEntity
  8
HUBBELL
 62
     7
100
AcDbPolyline
 90
        9
 70
     0
 43
0.0
 10
-3.929321391514648
 20
1.492187490067518
 42
0.0402956125282552
 10
-3.923742855561051
 20
1.475038636610725
 42
0.0987354107076148
 10
-3.899118025192944
 20
1.438410261213157
 42
0.0982446268369764
 10
-3.862317311335445
 20
1.413971186818267
 42
0.0979003842804642
 10
-3.818830137251501
 20
1.405373964762168
 42
0.0979003842804643
 10
-3.775342963167556
 20
1.413971186818267
 42
0.0982446268369812
 10
-3.738542249310057
 20
1.438410261213157
 42
0.0987354107076173
 10
-3.713917418941949
 20
1.475038636610725
 42
0.0402956125280495
 10
-3.708338882988654
 20
1.492187490067518
 42
0.0990852718276076
  0
LWPOLYLINE
  5
541
330
520
100
AcDbEntity
  8
HUBBELL
 62
     7
100
AcDbPolyline
 90
        7
 70
     0
 43
0.0
 10
-3.653187488370634
 20
1.544146382243907
 42
0.139613483674188
 10
-3.699035510799189
 20
1.597923611098268
 42
0.079743723868598
 10
-3.751415906951423
 20
1.621834664912817
 42
0.067373177709196
 10
-3.818830137251501
 20
1.630959907549256
 42
0.0673731777091967
 10
-3.886244367551578
 20
1.621834664912816
 42
0.0797437238685967
 10
-3.938624763703812
 20
1.597923611098268
 42
0.1396134836742667
 10
-3.98447278613242
 20
1.544146382243907
 42
0.0112575158592377
  0
LWPOLYLINE
  5
542
330
520
100
AcDbEntity
  8
HUBBELL
 62
     7
100
AcDbPolyline
 90
        9
 70
     0
 43
0.0
 10
-3.708338882989002
 20
1.544146382243907
 42
0.0402956125278113
 10
-3.713917418941949
 20
1.561295235700699
 42
0.0987354107076135
 10
-3.738542249310057
 20
1.597923611098268
 42
0.0982446268369806
 10
-3.775342963167556
 20
1.622362685493155
 42
0.0979003842804643
 10
-3.818830137251501
 20
1.630959907549256
 42
0.0979003842804646
 10
-3.862317311335445
 20
1.622362685493155
 42
0.0982446268369785
 10
-3.899118025192944
 20
1.597923611098268
 42
0.0987354107076195
 10
-3.923742855561051
 20
1.561295235700699
 42
0.0402956125279488
 10
-3.929321391514208
 20
1.544146382243907
 42
0.0990852718276084
  0
LWPOLYLINE
  5
543
330
520
100
AcDbEntity
  8
HUBBELL
 62
     7
100
AcDbPolyline
 90
        9
 70
     0
 43
0.0
 10
-3.762696643296277
 20
1.544146382243907
 42
0.0225820644691674
 10
-3.765929801506122
 20
1.56373784514022
 42
0.0660836885971898
 10
-3.778048987820924
 20
1.597923611098268
 42
0.104698185142336
 10
-3.799196178660037
 20
1.624005133986503
 42
0.1718785820284493
 10
-3.818830137251501
 20
1.630959907549256
 42
0.1718785820284537
 10
-3.838464095842964
 20
1.624005133986503
 42
0.1046981851423423
 10
-3.859611286682077
 20
1.597923611098268
 42
0.0660836885971916
 10
-3.871730472996879
 20
1.56373784514022
 42
0.0225820644691689
 10
-3.874963631206736
 20
1.544146382243907
 42
0.0522252130559454
  0
TEXT
  5
544
330
520
100
AcDbEntity
  8
HUBBELL
 62
     7
100
AcDbText
 10
-4.090528250394536
 20
1.498217497859006
 30
0.0
 40
0.0420019970847891
  1
HUBBELL
 41
2.0
  7
BOLD
 72
     1
 11
-3.810514936495942
 21
1.498217497859006
 31
0.0
100
AcDbText
  0
INSERT
  5
545
330
520
100
AcDbEntity
  8
HUBBELL
 62
     2
100
AcDbBlockReference
  2
*X2
 10
-6.186342873096986
 20
-4.209804709426065
 30
0.0
 41
0.7657304697371128
 42
0.7657304697371121
 43
0.7657304697371121
  0
TEXT
  5
546
330
520
100
AcDbEntity
  8
HUBBELL
 62
     7
100
AcDbText
 10
-4.141114491918905
 20
1.289439653118972
 30
0.0
 40
0.0375476918059115
  1
POWER SYSTEMS, INC
  7
BOLD
 72
     1
 11
-3.818830137251498
 21
1.289439653118972
 31
0.0
100
AcDbText
  0
LWPOLYLINE
  5
547
330
520
100
AcDbEntity
  8
HUBBELL
 62
     7
100
AcDbPolyline
 90
       16
 70
     1
 43
0.0
 10
-4.119211671698788
 20
1.518166936155711
 42
0.2116762310771139
 10
-4.103368744324446
 20
1.482421174823831
 42
0.0945814604124489
 10
-4.031231957202399
 20
1.438411190664357
 42
0.0512712502809105
 10
-3.941530150950937
 20
1.414860330168406
 42
0.038593814542383
 10
-3.818830137251498
 20
1.405375279204658
 42
0.0385938145423827
 10
-3.696130123552057
 20
1.414860330168406
 42
0.0512712502809104
 10
-3.606428317300595
 20
1.438411190664357
 42
0.0945814604124508
 10
-3.534291530178549
 20
1.482421174823831
 42
0.2116762310771179
 10
-3.518448602804205
 20
1.518166936155711
 42
0.2116762310771123
 10
-3.534291530178549
 20
1.553912697487591
 42
0.0945814604124511
 10
-3.606428317300595
 20
1.597922681647068
 42
0.0512712502809101
 10
-3.696130123552057
 20
1.621473542143017
 42
0.0385938145423829
 10
-3.818830137251498
 20
1.630958593106765
 42
0.0385938145423827
 10
-3.941530150950937
 20
1.621473542143017
 42
0.0512712502809104
 10
-4.031231957202399
 20
1.597922681647068
 42
0.0945814604124495
 10
-4.103368744324446
 20
1.553912697487591
 42
0.2116762310771117
  0
LINE
  5
548
330
520
100
AcDbEntity
  8
HUBBELL
 62
     2
100
AcDbLine
 10
-3.519049365873101
 20
1.668357703379358
 30
0.0
 11
-4.118610908629895
 21
1.668357703379358
 31
0.0
  0
LINE
  5
549
330
520
100
AcDbEntity
  8
HUBBELL
 62
     2
100
AcDbLine
 10
-4.118610908629895
 20
1.367976168932066
 30
0.0
 11
-3.519049365873101
 21
1.367976168932066
 31
0.0
  0
LWPOLYLINE
  5
54A
330
520
100
AcDbEntity
  8
HUBBELL
 62
     7
100
AcDbPolyline
 90
        7
 70
     0
 43
0.0
 10
-3.598117151435459
 20
1.544146382243907
 42
0.1282147354386156
 10
-3.659528772288322
 20
1.597923611098268
 42
0.0650153579857901
 10
-3.727722847761291
 20
1.621612330112669
 42
0.0511655343633079
 10
-3.818830137251501
 20
1.630959907549256
 42
0.0511655343633077
 10
-3.909937426741709
 20
1.621612330112669
 42
0.0650153579857905
 10
-3.978131502214677
 20
1.597923611098268
 42
0.1282147354385519
 10
-4.039543123067494
 20
1.544146382243907
 42
0.0036203377787454
  0
LWPOLYLINE
  5
54B
330
520
100
AcDbEntity
  8
HUBBELL
 62
     7
100
AcDbPolyline
 90
        7
 70
     0
 43
0.0
 10
-4.039543123067571
 20
1.492187490067518
 42
0.1282147354386514
 10
-3.978131502214677
 20
1.438410261213157
 42
0.06501535798579
 10
-3.909937426741709
 20
1.414721542198755
 42
0.0511655343633074
 10
-3.818830137251501
 20
1.405373964762168
 42
0.0511655343633075
 10
-3.727722847761291
 20
1.414721542198755
 42
0.0650153579857905
 10
-3.659528772288322
 20
1.438410261213157
 42
0.1282147354385501
 10
-3.598117151435514
 20
1.492187490067518
 42
0.0036203377787545
  0
LINE
  5
54C
330
520
100
AcDbEntity
  8
HUBBELL
 62
     2
100
AcDbLine
 10
-4.156759363504701
 20
1.630209248504553
 30
0.0
 11
-4.156759363504701
 21
1.406124623806872
 31
0.0
  0
TEXT
  5
54D
330
520
100
AcDbEntity
  8
TB
100
AcDbText
 10
-4.162100000000009
 20
1.135899999999999
 30
0.0
 40
0.065
  1
TITLE
  7
ADESK1
100
AcDbText
  0
ARC
  5
54E
330
520
100
AcDbEntity
  8
HUBBELL
 62
     2
100
AcDbCircle
 10
-4.118610908629895
 20
1.406124623806872
 30
0.0
 40
0.0381484548748061
100
AcDbArc
 50
180.0
 51
270.0
  0
ARC
  5
54F
330
520
100
AcDbEntity
  8
HUBBELL
 62
     2
100
AcDbCircle
 10
-4.118610908629895
 20
1.630209248504553
 30
0.0
 40
0.0381484548748061
100
AcDbArc
 50
90.0
 51
180.0
  0
LINE
  5
550
330
520
100
AcDbEntity
  8
HUBBELL
 62
     2
100
AcDbLine
 10
-3.480900910998294
 20
1.406124623806872
 30
0.0
 11
-3.480900910998294
 21
1.630209248504553
 31
0.0
  0
ARC
  5
551
330
520
100
AcDbEntity
  8
HUBBELL
 62
     2
100
AcDbCircle
 10
-3.519049365873101
 20
1.406124623806872
 30
0.0
 40
0.0381484548748061
100
AcDbArc
 50
270.0
 51
0.0
  0
ARC
  5
552
330
520
100
AcDbEntity
  8
HUBBELL
 62
     2
100
AcDbCircle
 10
-3.519049365873101
 20
1.630209248504553
 30
0.0
 40
0.0381484548748061
100
AcDbArc
 50
0.0
 51
90.0
  0
TEXT
  5
553
330
520
100
AcDbEntity
  8
HUBBELL
 62
     7
100
AcDbText
 10
-3.456302759534942
 20
1.656993497694299
 30
0.0
 40
0.02801513671875
  1
R
 72
     4
 11
-3.446964380628692
 21
1.671001066053674
 31
0.0
100
AcDbText
  0
CIRCLE
  5
554
330
520
100
AcDbEntity
  8
HUBBELL
 62
     7
100
AcDbCircle
 10
-3.446964380628692
 20
1.671001066053674
 30
0.0
 40
0.030763656848355
  0
TEXT
  5
555
330
520
100
AcDbEntity
  8
TB
100
AcDbText
 10
-1.072200000000009
 20
0.0925
 30
0.0
 40
0.065
  1
SHEET
  7
ADESK1
100
AcDbText
  0
LINE
  5
556
330
520
100
AcDbEntity
  8
TB
100
AcDbLine
 10
-1.125
 20
0.0
 30
0.0
 11
-1.125
 21
0.25
 31
0.0
  0
LINE
  5
557
330
520
100
AcDbEntity
  8
TB
100
AcDbLine
 10
-0.3799999999999954
 20
0.25
 30
0.0
 11
-0.3799999999999954
 21
0.63
 31
0.0
  0
TEXT
  5
558
330
520
100
AcDbEntity
  8
TB
100
AcDbText
 10
-0.2994999999999948
 20
0.5159000000000001
 30
0.0
 40
0.065
  1
REV
  7
ADESK1
100
AcDbText
  0
ATTDEF
  5
559
330
520
100
AcDbEntity
  8
0
100
AcDbText
 10
-2.291666666666666
 20
0.9917857142857144
 30
0.0
 40
0.2
  1
--
 72
     4
 11
-2.125
 21
1.091785714285714
 31
0.0
100
AcDbAttributeDefinition
  3
Title line 1
  2
TITLE1
 70
     0
  0
ATTDEF
  5
55A
330
520
100
AcDbEntity
  8
0
100
AcDbText
 10
-2.291666666666666
 20
0.6882142857142857
 30
0.0
 40
0.2
  1
--
 72
     4
 11
-2.125
 21
0.7882142857142857
 31
0.0
100
AcDbAttributeDefinition
  3
Title line 2
  2
TITLE2
 70
     0
  0
ATTDEF
  5
55B
330
520
100
AcDbEntity
  8
0
100
AcDbText
 10
-3.798329168628441
 20
0.306404654203205
 30
0.0
 40
0.125
  1
--
100
AcDbAttributeDefinition
  3
Dwg #
  2
DWG
 70
     0
  0
ATTDEF
  5
55C
330
520
100
AcDbEntity
  8
0
100
AcDbText
 10
-2.336585386684163
 20
0.306404654203205
 30
0.0
 40
0.125
  1
--
100
AcDbAttributeDefinition
  3
Cat/Part/Assy #
  2
CAT/PART/ASSY
 70
     0
  0
ATTDEF
  5
55D
330
520
100
AcDbEntity
  8
0
100
AcDbText
 10
-0.3175676611647304
 20
0.306404654203205
 30
0.0
 40
0.125
  1
--
100
AcDbAttributeDefinition
  3
Rev #
  2
RV
 70
     0
  0
ATTDEF
  5
55E
330
520
100
AcDbEntity
  8
0
100
AcDbText
 10
-4.120909413783664
 20
0.306404654203205
 30
0.0
 40
0.125
  1
-
100
AcDbAttributeDefinition
  3
Dwg Size
  2
X
 70
     0
  0
ATTDEF
  5
55F
330
520
100
AcDbEntity
  8
0
100
AcDbText
 10
-2.726444987532332
 20
0.0762074213389549
 30
0.0
 40
0.09375
  1
--
100
AcDbAttributeDefinition
  3
Drawn By
  2
DFT
 70
     0
  0
ATTDEF
  5
560
330
520
100
AcDbEntity
  8
0
100
AcDbText
 10
-1.912938716499482
 20
0.0762074213389549
 30
0.0
 40
0.09375
  1
--
100
AcDbAttributeDefinition
  3
Drawn Date
  2
DATE
 70
     0
  0
ATTDEF
  5
561
330
520
100
AcDbEntity
  8
0
100
AcDbText
 10
-0.6999163529800541
 20
0.0762074213389549
 30
0.0
 40
0.09375
  1
--
100
AcDbAttributeDefinition
  3
Sht x OF x
  2
SHT
 70
     0
  0
CIRCLE
  5
562
330
520
100
AcDbEntity
  8
HUBBELL
 62
     7
100
AcDbCircle
 10
-2.288030045871131
 20
1.671001066053674
 30
0.0
 40
0.030763656848355
  0
TEXT
  5
563
330
520
100
AcDbEntity
  8
HUBBELL
 62
     7
100
AcDbText
 10
-2.297368424777381
 20
1.656993497694299
 30
0.0
 40
0.02801513671875
  1
R
 72
     4
 11
-2.288030045871131
 21
1.671001066053674
 31
0.0
100
AcDbText
  0
TEXT
  5
564
330
520
100
AcDbEntity
  8
AND_TITLE_TEXT
 62
     7
100
AcDbText
 10
-5.943707773400461
 20
1.410730439560435
 30
0.0
 40
0.09375
  1
TOLERANCE CHART
 72
     1
 11
-5.256207773400461
 21
1.410730439560435
 31
0.0
100
AcDbText
  0
TEXT
  5
565
330
520
100
AcDbEntity
  8
FAR_TITLE_TEXT
 62
     7
100
AcDbText
 10
-5.6875
 20
1.543039776166072
 30
0.0
 40
0.1875
  1
FARGO
  7
BOLD
 72
     1
 11
-5.25
 21
1.543039776166072
 31
0.0
100
AcDbText
  0
TEXT
  5
566
330
520
100
AcDbEntity
  8
AND_TITLE_TEXT
 62
     7
100
AcDbText
 10
-5.986671153063251
 20
1.546456426413217
 30
0.0
 40
0.1874844757845249
  1
ANDERSON
  7
BOLD
100
AcDbText
  0
TEXT
  5
567
330
520
100
AcDbEntity
  8
FAR_TITLE_TEXT
 62
     7
100
AcDbText
 10
-5.943707773400461
 20
1.410730439560435
 30
0.0
 40
0.09375
  1
TOLERANCE CHART
 72
     1
 11
-5.256207773400461
 21
1.410730439560435
 31
0.0
100
AcDbText
  0
TEXT
  5
568
330
520
100
AcDbEntity
  8
FAR_TITLE_TEXT
100
AcDbText
 10
-4.761898700481882
 20
1.715439682426699
 30
0.0
 40
0.0175094604492188
  1
R
 72
     4
 11
-4.756062213665476
 21
1.724194412651309
 31
0.0
100
AcDbText
  0
CIRCLE
  5
569
330
520
100
AcDbEntity
  8
FAR_TITLE_TEXT
100
AcDbCircle
 10
-4.756062213665476
 20
1.724194412651309
 30
0.0
 40
0.0192272855302219
  0
CIRCLE
  5
56A
330
520
100
AcDbEntity
  8
AND_TITLE_TEXT
 62
     7
100
AcDbCircle
 10
-4.505427077595684
 20
1.724681335548817
 30
0.0
 40
0.0141009886214582
  0
TEXT
  5
56B
330
520
100
AcDbEntity
  8
AND_TITLE_TEXT
 62
     7
100
AcDbText
 10
-4.509707465176036
 20
1.71826075417829
 30
0.0
 40
0.0128411627410547
  1
R
 72
     4
 11
-4.505427077595684
 21
1.724681335548817
 31
0.0
100
AcDbText
  0
TEXT
  5
56C
330
520
100
AcDbEntity
  8
OB_TITLE_TEXT
 62
     7
100
AcDbText
 10
-5.989192437879661
 20
1.557073704956062
 30
0.0
 40
0.1640489163114593
  1
OHIO BRASS
  7
BOLD
100
AcDbText
  0
LWPOLYLINE
  5
56D
330
520
100
AcDbEntity
  8
OB_TITLE_TEXT
 62
     2
100
AcDbPolyline
 90
       10
 70
     0
 43
0.0119492411590649
 10
-6.05220238925888
 20
1.631394654755979
 10
-5.374815969171188
 20
1.631394654755979
 42
0.2346593897551948
 10
-5.315309835010776
 20
1.660949435900242
 10
-5.268338634903878
 20
1.722886060956274
 42
-0.9025617001988297
 10
-5.264276474261505
 20
1.720415045841776
 10
-5.349001515526683
 20
1.542374263670182
 42
0.9025617001988285
 10
-5.34493935488431
 20
1.539903248555684
 10
-5.297968154777412
 20
1.601839873611716
 42
-0.2346593897551948
 10
-5.238462020616998
 20
1.631394654755979
 10
-4.412198930260299
 20
1.631394654755979
  0
TEXT
  5
56E
330
520
100
AcDbEntity
  8
OB_TITLE_TEXT
 62
     7
100
AcDbText
 10
-5.943707773400461
 20
1.410730439560435
 30
0.0
 40
0.09375
  1
TOLERANCE CHART
 72
     1
 11
-5.256207773400461
 21
1.410730439560435
 31
0.0
100
AcDbText
  0
TEXT
  5
56F
330
520
100
AcDbEntity
  8
OB_TITLE_TEXT
 62
     7
100
AcDbText
 10
-4.40390246884914
 20
1.71826075417829
 30
0.0
 40
0.0128411627410547
  1
R
 72
     4
 11
-4.399622081268788
 21
1.724681335548817
 31
0.0
100
AcDbText
  0
CIRCLE
  5
570
330
520
100
AcDbEntity
  8
OB_TITLE_TEXT
 62
     7
100
AcDbCircle
 10
-4.399622081268788
 20
1.724681335548817
 30
0.0
 40
0.0141009886214582
  0
TEXT
  5
571
330
520
100
AcDbEntity
  8
CHANC_TITLE_TEXT
 62
     7
100
AcDbText
 10
-5.943707773400461
 20
1.410730439560435
 30
0.0
 40
0.09375
  1
TOLERANCE CHART
 72
     1
 11
-5.256207773400461
 21
1.410730439560435
 31
0.0
100
AcDbText
  0
TEXT
  5
572
330
520
100
AcDbEntity
  8
CHANC_TITLE_TEXT
 62
     7
100
AcDbText
 10
-5.78125
 20
1.543039776166072
 30
0.0
 40
0.1875
  1
CHANCE
  7
BOLD
 72
     1
 11
-5.25
 21
1.543039776166072
 31
0.0
100
AcDbText
  0
CIRCLE
  5
573
330
520
100
AcDbEntity
  8
CHANC_TITLE_TEXT
100
AcDbCircle
 10
-4.680486308390303
 20
1.724194412651309
 30
0.0
 40
0.0153818284241775
  0
TEXT
  5
574
330
520
100
AcDbEntity
  8
CHANC_TITLE_TEXT
100
AcDbText
 10
-4.685155497843428
 20
1.717190628471621
 30
0.0
 40
0.014007568359375
  1
R
 72
     4
 11
-4.680486308390303
 21
1.724194412651309
 31
0.0
100
AcDbText
  0
TEXT
  5
575
330
520
100
AcDbEntity
  8
CHARD_TITLE_TEXT
 62
     7
100
AcDbText
 10
-5.875
 20
1.543039776166072
 30
0.0
 40
0.1875
  1
CHARDON
  7
BOLD
 72
     1
 11
-5.25
 21
1.543039776166072
 31
0.0
100
AcDbText
  0
TEXT
  5
576
330
520
100
AcDbEntity
  8
CHARD_TITLE_TEXT
 62
     7
100
AcDbText
 10
-5.943707773400461
 20
1.410730439560435
 30
0.0
 40
0.09375
  1
TOLERANCE CHART
 72
     1
 11
-5.256207773400461
 21
1.410730439560435
 31
0.0
100
AcDbText
  0
CIRCLE
  5
577
330
520
100
AcDbEntity
  8
CHARD_TITLE_TEXT
100
AcDbCircle
 10
-4.578054826996183
 20
1.724194412651309
 30
0.0
 40
0.0153818284241775
  0
TEXT
  5
578
330
520
100
AcDbEntity
  8
CHARD_TITLE_TEXT
100
AcDbText
 10
-4.582724016449308
 20
1.717190628471621
 30
0.0
 40
0.014007568359375
  1
R
 72
     4
 11
-4.578054826996183
 21
1.724194412651309
 31
0.0
100
AcDbText
  0
TEXT
  5
579
330
520
100
AcDbEntity
  8
CF
100
AcDbText
 10
-1.440646383225846
 20
-0.2894521639455705
 30
0.0
 40
0.06640625
  1
CRITICAL FEATURES
 72
     4
 11
-0.9093963832258467
 21
-0.2562490389455705
 31
0.0
100
AcDbText
  0
TEXT
  5
57A
330
520
100
AcDbEntity
  8
CF
100
AcDbText
 10
-1.58452659155918
 20
-0.1787750806122372
 30
0.0
 40
0.06640625
  1
THIS SYMBOL IDENTIFIES
 72
     4
 11
-0.9093963832258467
 21
-0.1455719556122372
 31
0.0
100
AcDbText
  0
INSERT
  5
57B
330
520
100
AcDbEntity
  8
CF
100
AcDbBlockReference
  2
CF
 10
-1.910023864133414
 20
-0.1960358226591051
 30
0.0
  0
LINE
  5
57C
330
520
100
AcDbEntity
  8
CF
100
AcDbLine
 10
-2.25
 20
0.0
 30
0.0
 11
-2.25
 21
-0.375
 31
0.0
  0
LINE
  5
57D
330
520
100
AcDbEntity
  8
CF
100
AcDbLine
 10
0.0
 20
0.0
 30
0.0
 11
0.0
 21
-0.375
 31
0.0
  0
ENDBLK
  5
580
330
520
100
AcDbEntity
  8
0
100
AcDbBlockEnd
  0
BLOCK
  5
59E
330
58D
100
AcDbEntity
  8
0
100
AcDbBlockBegin
  2
tolerance
 70
     0
 10
0.0
 20
0.0
 30
0.0
  3
tolerance
  1

  0
TEXT
  5
58E
330
58D
100
AcDbEntity
  8
CHARD_TITLE_TEXT
100
AcDbText
 10
-5.560378130536436
 20
1.309935129464187
 30
0.0
 40
0.05859375
  1
0.00 = +/-.01
 72
     1
 11
-5.257643755536436
 21
1.309935129464187
 31
0.0
100
AcDbText
  0
TEXT
  5
58F
330
58D
100
AcDbEntity
  8
CHARD_TITLE_TEXT
100
AcDbText
 10
-5.618971880536436
 20
1.230247629464187
 30
0.0
 40
0.05859375
  1
0.000 = +/-.005
 72
     1
 11
-5.257643755536436
 21
1.230247629464187
 31
0.0
100
AcDbText
  0
TEXT
  5
590
330
58D
100
AcDbEntity
  8
CHARD_TITLE_TEXT
100
AcDbText
 10
-5.667800005536436
 20
1.150560129464186
 30
0.0
 40
0.05859375
  1
ANGLES = +/-30'
 72
     1
 11
-5.257643755536436
 21
1.150560129464186
 31
0.0
100
AcDbText
  0
TEXT
  5
591
330
58D
100
AcDbEntity
  8
CHANC_TITLE_TEXT
100
AcDbText
 10
-6.224936340499001
 20
1.150560129464186
 30
0.0
 40
0.05859375
  1
.XXX %%P  .005 CASTING 3%%D FORGINGS 7%%D
100
AcDbText
  0
TEXT
  5
592
330
58D
100
AcDbEntity
  8
CHANC_TITLE_TEXT
100
AcDbText
 10
-6.224936340499001
 20
1.230247629464187
 30
0.0
 40
0.05859375
  1
.XX %%P  .030 ADD DRAFT (UNLESS NOTED)
100
AcDbText
  0
TEXT
  5
593
330
58D
100
AcDbEntity
  8
CHANC_TITLE_TEXT
100
AcDbText
 10
-6.224936340499001
 20
1.309935129464187
 30
0.0
 40
0.05859375
  1
.X  %%P  .060 FRAC %%P1/16  ANGLES %%P2%%D
100
AcDbText
  0
TEXT
  5
594
330
58D
100
AcDbEntity
  8
OB_TITLE_TEXT
 62
     4
100
AcDbText
 10
-5.977372898668083
 20
1.230148624358097
 30
0.0
 40
0.0585999999999
  1
0.00 =+/-0.030  DO NOT USE
100
AcDbText
  0
TEXT
  5
595
330
58D
100
AcDbEntity
  8
OB_TITLE_TEXT
 62
     4
100
AcDbText
 10
-5.977372898668083
 20
1.308281957691296
 30
0.0
 40
0.0585999999999
  1
0.0  =+/-0.10  ANGLES=+/-30'
100
AcDbText
  0
TEXT
  5
596
330
58D
100
AcDbEntity
  8
OB_TITLE_TEXT
 62
     4
100
AcDbText
 10
-5.977372898668083
 20
1.152015291024897
 30
0.0
 40
0.0585999999999
  1
0.000=+/-0.015  FRACTIONS
100
AcDbText
  0
TEXT
  5
597
330
58D
100
AcDbEntity
  8
AND_TITLE_TEXT
 62
     4
100
AcDbText
 10
-5.977372898668083
 20
1.152015291024897
 30
0.0
 40
0.0585999999999
  1
0.000=+/-0.015  FRACTIONS
100
AcDbText
  0
TEXT
  5
598
330
58D
100
AcDbEntity
  8
AND_TITLE_TEXT
 62
     4
100
AcDbText
 10
-5.977372898668083
 20
1.308281957691296
 30
0.0
 40
0.0585999999999
  1
0.0  =+/-0.10  ANGLES=+/-30'
100
AcDbText
  0
TEXT
  5
599
330
58D
100
AcDbEntity
  8
AND_TITLE_TEXT
 62
     4
100
AcDbText
 10
-5.977372898668083
 20
1.230148624358097
 30
0.0
 40
0.0585999999999
  1
0.00 =+/-0.030  DO NOT USE
100
AcDbText
  0
TEXT
  5
59A
330
58D
100
AcDbEntity
  8
FAR_TITLE_TEXT
100
AcDbText
 10
-5.581753899524416
 20
1.309935129464187
 30
0.0
 40
0.05859375
  1
.XX   = %%P.015
100
AcDbText
  0
TEXT
  5
59B
330
58D
100
AcDbEntity
  8
FAR_TITLE_TEXT
100
AcDbText
 10
-5.581753899524416
 20
1.230247629464187
 30
0.0
 40
0.05859375
  1
.XXX  = %%P.010
100
AcDbText
  0
TEXT
  5
59C
330
58D
100
AcDbEntity
  8
FAR_TITLE_TEXT
100
AcDbText
 10
-5.581753899524416
 20
1.150560129464186
 30
0.0
 40
0.05859375
  1
ANGLE = %%P1%%D
100
AcDbText
  0
ENDBLK
  5
59F
330
58D
100
AcDbEntity
  8
0
100
AcDbBlockEnd
  0
BLOCK
  5
5BC
330
5A3
100
AcDbEntity
  8
0
100
AcDbBlockBegin
  2
revblk
 70
     2
 10
0.0
 20
0.0
 30
0.0
  3
revblk
  1

  0
LINE
  5
5A4
330
5A3
100
AcDbEntity
  8
TB
100
AcDbLine
 10
-11.25
 20
1.25
 30
0.0
 11
-6.25
 21
1.249999999999999
 31
0.0
  0
LINE
  5
5A5
330
5A3
100
AcDbEntity
  8
TB
100
AcDbLine
 10
-6.25
 20
1.5
 30
0.0
 11
-11.25
 21
1.5
 31
0.0
  0
TEXT
  5
5A6
330
5A3
100
AcDbEntity
  8
TB
100
AcDbText
 10
-11.19737049113894
 20
1.0932256520309
 30
0.0
 40
0.06
  1
DESC OF DWG: 
  7
MONOTXT
100
AcDbText
  0
TEXT
  5
5A7
330
5A3
100
AcDbEntity
  8
TB
100
AcDbText
 10
-11.19737049113894
 20
0.0672617915805932
 30
0.0
 40
0.06
  1
DISPOSITION OF MAT'L: 
  7
MONOTXT
100
AcDbText
  0
TEXT
  5
5A8
330
5A3
100
AcDbEntity
  8
TB
100
AcDbText
 10
-11.19737049113894
 20
0.2448324514348402
 30
0.0
 40
0.06
  1
REASON (S) FOR CHANGE: 
  7
MONOTXT
100
AcDbText
  0
TEXT
  5
5A9
330
5A3
100
AcDbEntity
  8
TB
100
AcDbText
 10
-11.02166666666666
 20
1.33
 30
0.0
 40
0.08
  1
EC #
  7
MONOTXT
 72
     1
 11
-10.875
 21
1.33
 31
0.0
100
AcDbText
  0
LINE
  5
5AA
330
5A3
100
AcDbEntity
  8
TB
100
AcDbLine
 10
-10.5
 20
1.25
 30
0.0
 11
-10.5
 21
1.75
 31
0.0
  0
TEXT
  5
5AB
330
5A3
100
AcDbEntity
  8
TB
100
AcDbText
 10
-10.14666666666666
 20
1.33
 30
0.0
 40
0.08
  1
DATE
  7
MONOTXT
 72
     1
 11
-10.0
 21
1.33
 31
0.0
100
AcDbText
  0
LINE
  5
5AC
330
5A3
100
AcDbEntity
  8
TB
100
AcDbLine
 10
-8.25
 20
1.249999999999999
 30
0.0
 11
-8.25
 21
1.75
 31
0.0
  0
TEXT
  5
5AD
330
5A3
100
AcDbEntity
  8
TB
100
AcDbText
 10
-7.556666666666666
 20
1.33
 30
0.0
 40
0.08
  1
RESP ENG
  7
MONOTXT
 72
     1
 11
-7.25
 21
1.33
 31
0.0
100
AcDbText
  0
LINE
  5
5AE
330
5A3
100
AcDbEntity
  8
TB
100
AcDbLine
 10
-9.5
 20
1.25
 30
0.0
 11
-9.5
 21
1.75
 31
0.0
  0
TEXT
  5
5AF
330
5A3
100
AcDbEntity
  8
TB
100
AcDbText
 10
-9.101666666666666
 20
1.33
 30
0.0
 40
0.08
  1
CHG BY
  7
MONOTXT
 72
     1
 11
-8.875
 21
1.33
 31
0.0
100
AcDbText
  0
LINE
  5
5B0
330
5A3
100
AcDbEntity
  8
TB
100
AcDbLine
 10
-11.25
 20
0.0000000000000003
 30
0.0
 11
-11.25
 21
1.75
 31
0.0
  0
ATTDEF
  5
5B1
330
5A3
100
AcDbEntity
  8
TB
100
AcDbText
 10
-10.94166666666666
 20
1.552185094113302
 30
0.0
 40
0.08
  1
--
  7
BOLD
 72
     4
 11
-10.875
 21
1.592185094113302
 31
0.0
100
AcDbAttributeDefinition
  3
EC #
  2
EC
 70
     0
  0
ATTDEF
  5
5B2
330
5A3
100
AcDbEntity
  8
TB
100
AcDbText
 10
-10.06666666666666
 20
1.552185094113302
 30
0.0
 40
0.08
  1
--
  7
BOLD
 72
     4
 11
-10.0
 21
1.592185094113302
 31
0.0
100
AcDbAttributeDefinition
  3
REV DATE
  2
DATE
 70
     0
  0
ATTDEF
  5
5B3
330
5A3
100
AcDbEntity
  8
TB
100
AcDbText
 10
-8.941666666666666
 20
1.552185094113302
 30
0.0
 40
0.08
  1
--
  7
BOLD
 72
     4
 11
-8.875
 21
1.592185094113302
 31
0.0
100
AcDbAttributeDefinition
  3
CHG BY
  2
CHG
 70
     0
  0
ATTDEF
  5
5B4
330
5A3
100
AcDbEntity
  8
TB
100
AcDbText
 10
-7.316666666666666
 20
1.552185094113302
 30
0.0
 40
0.08
  1
--
  7
BOLD
 72
     4
 11
-7.25
 21
1.592185094113302
 31
0.0
100
AcDbAttributeDefinition
  3
RESP ENG
  2
RESP
 70
     0
  0
ATTDEF
  5
5B5
330
5A3
100
AcDbEntity
  8
TB
100
AcDbText
 10
-11.19737049113894
 20
0.9551150908518282
 30
0.0
 40
0.06
  1
--
  7
BOLD
100
AcDbAttributeDefinition
  3
DESC OF DWG LINE 1
  2
DESC1
 70
     0
  0
ATTDEF
  5
5B6
330
5A3
100
AcDbEntity
  8
TB
100
AcDbText
 10
-11.19737049113894
 20
0.7775444309975814
 30
0.0
 40
0.06
  1
--
  7
BOLD
100
AcDbAttributeDefinition
  3
DESC OF DWG LINE 2
  2
DESC2
 70
     0
  0
ATTDEF
  5
5B7
330
5A3
100
AcDbEntity
  8
TB
100
AcDbText
 10
-11.19737049113894
 20
0.5999737711433343
 30
0.0
 40
0.06
  1
--
  7
BOLD
100
AcDbAttributeDefinition
  3
DESC OF DWG LINE 3
  2
DESC3
 70
     0
  0
ATTDEF
  5
5B8
330
5A3
100
AcDbEntity
  8
TB
100
AcDbText
 10
-11.19737049113894
 20
0.4224031112890873
 30
0.0
 40
0.06
  1
--
  7
BOLD
100
AcDbAttributeDefinition
  3
DESC OF DWG LINE 4
  2
DESC4
 70
     0
  0
ATTDEF
  5
5B9
330
5A3
100
AcDbEntity
  8
TB
100
AcDbText
 10
-9.809542963620174
 20
0.2448324514348402
 30
0.0
 40
0.06
  1
--
  7
BOLD
100
AcDbAttributeDefinition
  3
RESON FOR CHANGE
  2
REASON
 70
     0
  0
ATTDEF
  5
5BA
330
5A3
100
AcDbEntity
  8
TB
100
AcDbText
 10
-9.878550979326078
 20
0.0672617915805932
 30
0.0
 40
0.06
  1
--
  7
BOLD
100
AcDbAttributeDefinition
  3
DISPOSITION OF MATERIAL
  2
DISP
 70
     0
  0
LINE
  5
5BB
330
5A3
100
AcDbEntity
  8
TB
100
AcDbLine
 10
-11.25
 20
1.75
 30
0.0
 11
-6.25
 21
1.75
 31
0.0
  0
ENDBLK
  5
5BD
330
5A3
100
AcDbEntity
  8
0
100
AcDbBlockEnd
  0
BLOCK
  5
5E9
330
5CB
100
AcDbEntity
  8
0
100
AcDbBlockBegin
  2
dist
 70
     0
 10
0.0
 20
0.0
 30
0.0
  3
dist
  1

  0
TEXT
  5
5CC
330
5CB
100
AcDbEntity
  8
CHANC_TITLE_TEXT
100
AcDbText
 10
-7.269345238095232
 20
1.111537437131109
 30
0.0
 40
0.0625
  1
AREAS AFFECTED
  7
ADESK1
 72
     4
 11
-6.874999999999994
 21
1.142787437131109
 31
0.0
100
AcDbText
  0
TEXT
  5
5CD
330
5CB
100
AcDbEntity
  8
CHANC_TITLE_TEXT
100
AcDbText
 10
-7.214285714285709
 20
1.00842242115667
 30
0.0
 40
0.0625
  1
BY LATEST EC
  7
ADESK1
 72
     4
 11
-6.874999999999994
 21
1.03967242115667
 31
0.0
100
AcDbText
  0
TEXT
  5
5CE
330
5CB
100
AcDbEntity
  8
CHANC_TITLE_TEXT
100
AcDbText
 10
-6.798833817139751
 20
0.9053074051822179
 30
0.0
 40
0.0625
  1
Y    N
  7
ADESK1
 72
     4
 11
-6.618774293330227
 21
0.9365574051822179
 31
0.0
100
AcDbText
  0
LINE
  5
5CF
330
5CB
100
AcDbEntity
  8
CHANC_TITLE_TEXT
100
AcDbLine
 10
-7.499999999999994
 20
1.249999999999997
 30
0.0
 11
-7.499999999999993
 21
0.0
 31
0.0
  0
TEXT
  5
5D0
330
5CB
100
AcDbEntity
  8
CHANC_TITLE_TEXT
100
AcDbText
 10
-7.455778245710712
 20
0.6028200745092719
 30
0.0
 40
0.0625
  1
TOOL/EQUIP
  7
ADESK1
100
AcDbText
  0
TEXT
  5
5D1
330
5CB
100
AcDbEntity
  8
CHANC_TITLE_TEXT
100
AcDbText
 10
-7.455778245710712
 20
0.2934750265859422
 30
0.0
 40
0.0625
  1
PRCS PROC
  7
ADESK1
100
AcDbText
  0
TEXT
  5
5D2
330
5CB
100
AcDbEntity
  8
CHANC_TITLE_TEXT
100
AcDbText
 10
-7.455778245710712
 20
0.1903600106115036
 30
0.0
 40
0.0625
  1
PKG/LABEL
  7
ADESK1
100
AcDbText
  0
TEXT
  5
5D3
330
5CB
100
AcDbEntity
  8
CHANC_TITLE_TEXT
100
AcDbText
 10
-7.455778245710712
 20
0.0872449946370652
 30
0.0
 40
0.0625
  1
INSP/TEST
  7
ADESK1
100
AcDbText
  0
TEXT
  5
5D4
330
5CB
100
AcDbEntity
  8
CHANC_TITLE_TEXT
100
AcDbText
 10
-7.455778245710712
 20
0.3965900425603807
 30
0.0
 40
0.0625
  1
GAUGES
  7
ADESK1
100
AcDbText
  0
TEXT
  5
5D5
330
5CB
100
AcDbEntity
  8
CHANC_TITLE_TEXT
100
AcDbText
 10
-7.455778245710712
 20
0.4997050585348334
 30
0.0
 40
0.0625
  1
SUPPLIER
  7
ADESK1
100
AcDbText
  0
TEXT
  5
5D6
330
5CB
100
AcDbEntity
  8
CHANC_TITLE_TEXT
100
AcDbText
 10
-7.455778245710712
 20
0.7059350904837105
 30
0.0
 40
0.0625
  1
F.A.I.
  7
ADESK1
100
AcDbText
  0
TEXT
  5
5D7
330
5CB
100
AcDbEntity
  8
CHANC_TITLE_TEXT
100
AcDbText
 10
-7.455778245710712
 20
0.8090501064581488
 30
0.0
 40
0.0625
  1
S.P.C.
  7
ADESK1
100
AcDbText
  0
MTEXT
  5
5D8
330
5CB
100
AcDbEntity
  8
CHANC_TITLE_TEXT
100
AcDbMText
 10
-6.794918977073598
 20
0.8080457136661964
 30
0.0
 40
0.0625
 41
0.0761
 71
     7
 72
     5
  1
_
 73
     1
 44
1.0
1001
ACAD
1000
MTEXTBEGIN
1070
    73
1070
     1
1070
    44
1040
1.0
1070
    74
1070
     0
1000
MTEXTEND
  0
MTEXT
  5
5D9
330
5CB
100
AcDbEntity
  8
CHANC_TITLE_TEXT
100
AcDbMText
 10
-6.47997026750629
 20
0.8080457136661964
 30
0.0
 40
0.0625
 41
0.0781467667520882
 71
     7
 72
     5
  1
{\Fsimplex.shx|c0;X}
 73
     1
 44
1.0
1001
ACAD
1000
MTEXTBEGIN
1070
    73
1070
     1
1070
    44
1040
1.0
1070
    74
1070
     0
1000
MTEXTEND
  0
MTEXT
  5
5DA
330
5CB
100
AcDbEntity
  8
CHANC_TITLE_TEXT
100
AcDbMText
 10
-6.47997026750629
 20
0.7049306976917579
 30
0.0
 40
0.0625
 41
0.0781467667520882
 71
     7
 72
     5
  1
{\Fsimplex.shx|c0;X}
 73
     1
 44
1.0
1001
ACAD
1000
MTEXTBEGIN
1070
    73
1070
     1
1070
    44
1040
1.0
1070
    74
1070
     0
1000
MTEXTEND
  0
MTEXT
  5
5DB
330
5CB
100
AcDbEntity
  8
CHANC_TITLE_TEXT
100
AcDbMText
 10
-6.47997026750629
 20
0.6018156817173194
 30
0.0
 40
0.0625
 41
0.0781467667520882
 71
     7
 72
     5
  1
{\Fsimplex.shx|c0;X}
 73
     1
 44
1.0
1001
ACAD
1000
MTEXTBEGIN
1070
    73
1070
     1
1070
    44
1040
1.0
1070
    74
1070
     0
1000
MTEXTEND
  0
MTEXT
  5
5DC
330
5CB
100
AcDbEntity
  8
CHANC_TITLE_TEXT
100
AcDbMText
 10
-6.47997026750629
 20
0.4987006657428809
 30
0.0
 40
0.0625
 41
0.0781467667520882
 71
     7
 72
     5
  1
{\Fsimplex.shx|c0;X}
 73
     1
 44
1.0
1001
ACAD
1000
MTEXTBEGIN
1070
    73
1070
     1
1070
    44
1040
1.0
1070
    74
1070
     0
1000
MTEXTEND
  0
MTEXT
  5
5DD
330
5CB
100
AcDbEntity
  8
CHANC_TITLE_TEXT
100
AcDbMText
 10
-6.47997026750629
 20
0.3955856497684281
 30
0.0
 40
0.0625
 41
0.0781467667520882
 71
     7
 72
     5
  1
{\Fsimplex.shx|c0;X}
 73
     1
 44
1.0
1001
ACAD
1000
MTEXTBEGIN
1070
    73
1070
     1
1070
    44
1040
1.0
1070
    74
1070
     0
1000
MTEXTEND
  0
MTEXT
  5
5DE
330
5CB
100
AcDbEntity
  8
CHANC_TITLE_TEXT
100
AcDbMText
 10
-6.47997026750629
 20
0.2924706337939896
 30
0.0
 40
0.0625
 41
0.0781467667520882
 71
     7
 72
     5
  1
{\Fsimplex.shx|c0;X}
 73
     1
 44
1.0
1001
ACAD
1000
MTEXTBEGIN
1070
    73
1070
     1
1070
    44
1040
1.0
1070
    74
1070
     0
1000
MTEXTEND
  0
MTEXT
  5
5DF
330
5CB
100
AcDbEntity
  8
CHANC_TITLE_TEXT
100
AcDbMText
 10
-6.47997026750629
 20
0.1893556178195511
 30
0.0
 40
0.0625
 41
0.0781467667520882
 71
     7
 72
     5
  1
{\Fsimplex.shx|c0;X}
 73
     1
 44
1.0
1001
ACAD
1000
MTEXTBEGIN
1070
    73
1070
     1
1070
    44
1040
1.0
1070
    74
1070
     0
1000
MTEXTEND
  0
MTEXT
  5
5E0
330
5CB
100
AcDbEntity
  8
CHANC_TITLE_TEXT
100
AcDbMText
 10
-6.47997026750629
 20
0.0862406018451126
 30
0.0
 40
0.0625
 41
0.0781467667520882
 71
     7
 72
     5
  1
{\Fsimplex.shx|c0;X}
 73
     1
 44
1.0
1001
ACAD
1000
MTEXTBEGIN
1070
    73
1070
     1
1070
    44
1040
1.0
1070
    74
1070
     0
1000
MTEXTEND
  0
MTEXT
  5
5E1
330
5CB
100
AcDbEntity
  8
CHANC_TITLE_TEXT
100
AcDbMText
 10
-6.794918977073598
 20
0.7049306976917579
 30
0.0
 40
0.0625
 41
0.0761
 71
     7
 72
     5
  1
_
 73
     1
 44
1.0
1001
ACAD
1000
MTEXTBEGIN
1070
    73
1070
     1
1070
    44
1040
1.0
1070
    74
1070
     0
1000
MTEXTEND
  0
MTEXT
  5
5E2
330
5CB
100
AcDbEntity
  8
CHANC_TITLE_TEXT
100
AcDbMText
 10
-6.794918977073598
 20
0.6018156817173194
 30
0.0
 40
0.0625
 41
0.0761
 71
     7
 72
     5
  1
_
 73
     1
 44
1.0
1001
ACAD
1000
MTEXTBEGIN
1070
    73
1070
     1
1070
    44
1040
1.0
1070
    74
1070
     0
1000
MTEXTEND
  0
MTEXT
  5
5E3
330
5CB
100
AcDbEntity
  8
CHANC_TITLE_TEXT
100
AcDbMText
 10
-6.794918977073598
 20
0.4987006657428809
 30
0.0
 40
0.0625
 41
0.0761
 71
     7
 72
     5
  1
_
 73
     1
 44
1.0
1001
ACAD
1000
MTEXTBEGIN
1070
    73
1070
     1
1070
    44
1040
1.0
1070
    74
1070
     0
1000
MTEXTEND
  0
MTEXT
  5
5E4
330
5CB
100
AcDbEntity
  8
CHANC_TITLE_TEXT
100
AcDbMText
 10
-6.794918977073598
 20
0.3955856497684281
 30
0.0
 40
0.0625
 41
0.0761
 71
     7
 72
     5
  1
_
 73
     1
 44
1.0
1001
ACAD
1000
MTEXTBEGIN
1070
    73
1070
     1
1070
    44
1040
1.0
1070
    74
1070
     0
1000
MTEXTEND
  0
MTEXT
  5
5E5
330
5CB
100
AcDbEntity
  8
CHANC_TITLE_TEXT
100
AcDbMText
 10
-6.794918977073598
 20
0.2924706337939896
 30
0.0
 40
0.0625
 41
0.0761
 71
     7
 72
     5
  1
_
 73
     1
 44
1.0
1001
ACAD
1000
MTEXTBEGIN
1070
    73
1070
     1
1070
    44
1040
1.0
1070
    74
1070
     0
1000
MTEXTEND
  0
MTEXT
  5
5E6
330
5CB
100
AcDbEntity
  8
CHANC_TITLE_TEXT
100
AcDbMText
 10
-6.794918977073598
 20
0.1893556178195511
 30
0.0
 40
0.0625
 41
0.0761
 71
     7
 72
     5
  1
_
 73
     1
 44
1.0
1001
ACAD
1000
MTEXTBEGIN
1070
    73
1070
     1
1070
    44
1040
1.0
1070
    74
1070
     0
1000
MTEXTEND
  0
MTEXT
  5
5E7
330
5CB
100
AcDbEntity
  8
CHANC_TITLE_TEXT
100
AcDbMText
 10
-6.794918977073598
 20
0.0862406018451126
 30
0.0
 40
0.0625
 41
0.0761
 71
     7
 72
     5
  1
_
 73
     1
 44
1.0
1001
ACAD
1000
MTEXTBEGIN
1070
    73
1070
     1
1070
    44
1040
1.0
1070
    74
1070
     0
1000
MTEXTEND
  0
ENDBLK
  5
5EA
330
5CB
100
AcDbEntity
  8
0
100
AcDbBlockEnd
  0
BLOCK
  5
5EF
330
5EE
100
AcDbEntity
  8
0
100
AcDbBlockBegin
  2
TerminatorOpen_0.5
 70
     0
 10
0.0
 20
0.0
 30
0.0
  3
TerminatorOpen_0.5
  1

  0
LINE
  5
5F0
330
5EE
100
AcDbEntity
  8
0
  6
ByBlock
 62
     0
370
    -2
100
AcDbLine
 10
0.0
 20
0.0
 30
0.0
 11
-1.0
 21
0.0
 31
0.0
  0
LINE
  5
5F1
330
5EE
100
AcDbEntity
  8
0
  6
ByBlock
 62
     0
370
    -2
100
AcDbLine
 10
0.0
 20
0.0
 30
0.0
 11
-1.0
 21
0.25
 31
0.0
  0
LINE
  5
5F2
330
5EE
100
AcDbEntity
  8
0
  6
ByBlock
 62
     0
370
    -2
100
AcDbLine
 10
0.0
 20
0.0
 30
0.0
 11
-1.0
 21
-0.25
 31
0.0
  0
ENDBLK
  5
5F3
330
5EE
100
AcDbEntity
  8
0
100
AcDbBlockEnd
  0
BLOCK
  5
5F5
330
5F4
100
AcDbEntity
  8
0
100
AcDbBlockBegin
  2
*U9
 70
     1
 10
0.0
 20
0.0
 30
0.0
  3
*U9
  1

  0
MTEXT
  5
5F6
330
5F4
100
AcDbEntity
  8
--ANNO-REVS
  6
Continuous
 62
     7
370
    13
100
AcDbMText
 10
0.2578736640946033
 20
0.2500001249999855
 30
0.0
 40
0.5000002500000001
 41
0.0
 71
     1
 72
     1
  1
1" R\P(TYP)
  7
Style-WORKING
210
0.0
220
0.0
230
-1.0
 11
-1.0
 21
0.0
 31
0.0
 73
     2
 44
0.8999998500000749
1001
ACAD
1000
MTEXTBEGIN
1070
    73
1070
     2
1070
    44
1040
0.8999998500000749
1070
    74
1070
     0
1000
MTEXTEND
  0
ENDBLK
  5
5F7
330
5F4
100
AcDbEntity
  8
0
100
AcDbBlockEnd
  0
ENDSEC
  0
SECTION
  2
ENTITIES
  0
INSERT
  5
9B
330
1F
100
AcDbEntity
  8
title
100
AcDbBlockReference
 66
     1
  2
scale
 10
0.45
 20
0.45
 30
0.0
 41
4.5
 42
4.5
 43
4.5
  0
ATTRIB
  5
9C
330
9B
100
AcDbEntity
  8
title
100
AcDbText
 10
0.45
 20
0.45
 30
0.0
 40
0.225
  1
1:4.5
100
AcDbAttribute
  2
SCL
 70
     0
1001
AcDbAttr
1070
     0
1070
     1
  0
SEQEND
  5
9D
330
9B
100
AcDbEntity
  8
title
  0
LINE
  5
9E
330
1F
100
AcDbEntity
  8
title
100
AcDbLine
 10
0.0
 20
0.0
 30
0.0
 11
76.5
 21
0.0
 31
0.0
  0
LINE
  5
9F
330
1F
100
AcDbEntity
  8
title
100
AcDbLine
 10
76.5
 20
0.0
 30
0.0
 11
76.5
 21
49.5
 31
0.0
  0
LINE
  5
A0
330
1F
100
AcDbEntity
  8
title
100
AcDbLine
 10
76.5
 20
49.5
 30
0.0
 11
0.0
 21
49.5
 31
0.0
  0
LINE
  5
A1
330
1F
100
AcDbEntity
  8
title
100
AcDbLine
 10
0.0
 20
49.5
 30
0.0
 11
0.0
 21
0.0
 31
0.0
  0
LINE
  5
A2
330
1F
100
AcDbEntity
  8
title
100
AcDbLine
 10
1.6875
 20
1.6875
 30
0.0
 11
74.8125
 21
1.6875
 31
0.0
  0
LINE
  5
A3
330
1F
100
AcDbEntity
  8
title
100
AcDbLine
 10
74.8125
 20
1.6875
 30
0.0
 11
74.8125
 21
47.8125
 31
0.0
  0
LINE
  5
A4
330
1F
100
AcDbEntity
  8
title
100
AcDbLine
 10
74.8125
 20
47.8125
 30
0.0
 11
1.6875
 21
47.8125
 31
0.0
  0
LINE
  5
A5
330
1F
100
AcDbEntity
  8
title
100
AcDbLine
 10
1.6875
 20
47.8125
 30
0.0
 11
1.6875
 21
1.6875
 31
0.0
  0
INSERT
  5
582
330
1F
100
AcDbEntity
  8
title
100
AcDbBlockReference
 66
     1
  2
titleblk
 10
74.8125
 20
1.6875
 30
0.0
 41
4.5
 42
4.5
 43
4.5
  0
ATTRIB
  5
583
330
582
100
AcDbEntity
  8
0
100
AcDbText
 10
59.49749999999999
 20
6.150535714285714
 30
0.0
 40
0.9000000000000001
  1
ALSF-2 FLASHER EQUIP.
 41
0.65
 72
     4
 11
65.25
 21
6.600535714285714
 31
0.0
100
AcDbAttribute
  2
TITLE1
 70
     0
  0
ATTRIB
  5
584
330
582
100
AcDbEntity
  8
0
100
AcDbText
 10
58.47374999999999
 20
4.784464285714284
 30
0.0
 40
0.9000000000000001
  1
MOUNTING PLATE FOR MG-20
 41
0.65
 72
     4
 11
65.25
 21
5.234464285714285
 31
0.0
100
AcDbAttribute
  2
TITLE2
 70
     0
  0
ATTRIB
  5
585
330
582
100
AcDbEntity
  8
0
100
AcDbText
 10
57.72001874117201
 20
3.066320943914422
 30
0.0
 40
0.5625
  1
SA1120804
100
AcDbAttribute
  2
DWG
 70
     0
  0
ATTRIB
  5
586
330
582
100
AcDbEntity
  8
0
100
AcDbText
 10
64.29786575992126
 20
3.066320943914422
 30
0.0
 40
0.5625
  1
    T1120804
100
AcDbAttribute
  2
CAT/PART/ASSY
 70
     0
  0
ATTRIB
  5
587
330
582
100
AcDbEntity
  8
0
100
AcDbText
 10
73.38344552475871
 20
3.066320943914422
 30
0.0
 40
0.5625
  1
--
100
AcDbAttribute
  2
RV
 70
     0
  0
ATTRIB
  5
588
330
582
100
AcDbEntity
  8
0
100
AcDbText
 10
56.26840763797351
 20
3.066320943914422
 30
0.0
 40
0.5625
  1
B
100
AcDbAttribute
  2
X
 70
     0
  0
ATTRIB
  5
589
330
582
100
AcDbEntity
  8
0
100
AcDbText
 10
62.54349755610451
 20
2.030433396025296
 30
0.0
 40
0.421875
  1
KSH
100
AcDbAttribute
  2
DFT
 70
     0
  0
ATTRIB
  5
58A
330
582
100
AcDbEntity
  8
0
100
AcDbText
 10
66.20427577575234
 20
2.030433396025296
 30
0.0
 40
0.421875
  1
6/27/07
100
AcDbAttribute
  2
DATE
 70
     0
  0
ATTRIB
  5
58B
330
582
100
AcDbEntity
  8
0
100
AcDbText
 10
71.66287641158977
 20
2.030433396025296
 30
0.0
 40
0.421875
  1
1 OF 1
100
AcDbAttribute
  2
SHT
 70
     0
  0
SEQEND
  5
58C
330
582
100
AcDbEntity
  8
title
  0
CIRCLE
  5
6A8
330
1F
100
AcDbEntity
  8
--ANNO-DIMS
  6
Continuous
 62
     9
370
     0
100
AcDbCircle
 10
28.69519122093871
 20
37.96951669792013
 30
0.0
 40
0.3578550777286982
  0
CIRCLE
  5
6A9
330
1F
100
AcDbEntity
  8
--ANNO-DIMS
  6
Continuous
 62
     9
370
     0
100
AcDbCircle
 10
15.46257749959048
 20
37.96951669792013
 30
0.0
 40
0.3578550777286982
  0
ELLIPSE
  5
6AA
330
1F
100
AcDbEntity
  8
--ANNO-REVS
  6
Continuous
 62
     7
370
    13
100
AcDbEllipse
 10
15.46257749959048
 20
37.96951669792013
 30
0.0
 11
-0.072811059545064
 21
-0.3762191742765322
 31
0.0
210
0.0
220
0.0
230
1.0
 40
0.9999945307441873
 41
0.0
 42
6.283185307179586
  0
POINT
  5
6AB
330
1F
100
AcDbEntity
  8
--ANNO-REVS
  6
Continuous
 62
     7
370
    13
100
AcDbPoint
 10
15.08649210875168
 20
38.04233623616135
 30
0.0
  0
LINE
  5
6AC
330
1F
100
AcDbEntity
  8
--ANNO-REVS
  6
Continuous
 62
     7
370
    13
100
AcDbLine
 10
15.45868096926847
 20
37.57964915847388
 30
0.0
 11
15.45868096926847
 21
37.3583844161552
 31
0.0
  0
LINE
  5
6AD
330
1F
100
AcDbEntity
  8
--ANNO-REVS
  6
Continuous
 62
     7
370
    13
100
AcDbLine
 10
15.26540246660312
 20
37.60864327777999
 30
0.0
 11
15.14023787719827
 21
37.44503862720943
 31
0.0
  0
LINE
  5
6AE
330
1F
100
AcDbEntity
  8
--ANNO-REVS
  6
Continuous
 62
     7
370
    13
100
AcDbLine
 10
15.13074505721536
 20
37.76341140209438
 30
0.0
 11
14.93772438422871
 21
37.63763739708576
 31
0.0
  0
LINE
  5
6AF
330
1F
100
AcDbEntity
  8
--ANNO-REVS
  6
Continuous
 62
     7
370
    13
100
AcDbLine
 10
15.08264810263509
 20
37.96608896849579
 30
0.0
 11
14.84138984069801
 21
37.96608896849579
 31
0.0
  0
LINE
  5
6B0
330
1F
100
AcDbEntity
  8
--ANNO-REVS
  6
Continuous
 62
     7
370
    13
100
AcDbLine
 10
15.12073657787536
 20
38.13916299998754
 30
0.0
 11
14.90873026492275
 21
38.27417199530065
 31
0.0
  0
LINE
  5
6B1
330
1F
100
AcDbEntity
  8
--ANNO-REVS
  6
Continuous
 62
     7
370
    13
100
AcDbLine
 10
15.26540246660312
 20
38.2936732946237
 30
0.0
 11
15.14023787719827
 21
38.49585864072974
 31
0.0
  0
LINE
  5
6B2
330
1F
100
AcDbEntity
  8
--ANNO-REVS
  6
Continuous
 62
     7
370
    13
100
AcDbLine
 10
15.63227066011717
 20
37.60864327777999
 30
0.0
 11
15.75743524952199
 21
37.44503862720943
 31
0.0
  0
LINE
  5
6B3
330
1F
100
AcDbEntity
  8
--ANNO-REVS
  6
Continuous
 62
     7
370
    13
100
AcDbLine
 10
15.76695150856653
 20
37.76341140209438
 30
0.0
 11
15.96004249873829
 21
37.63763739708576
 31
0.0
  0
LINE
  5
6B4
330
1F
100
AcDbEntity
  8
--ANNO-REVS
  6
Continuous
 62
     7
370
    13
100
AcDbLine
 10
15.81544692719555
 20
37.96608896849579
 30
0.0
 11
16.05628328602216
 21
37.96608896849579
 31
0.0
  0
LINE
  5
6B5
330
1F
100
AcDbEntity
  8
--ANNO-REVS
  6
Continuous
 62
     7
370
    13
100
AcDbLine
 10
15.77644432854944
 20
38.13916299998754
 30
0.0
 11
15.98896630085915
 21
38.27417199530065
 31
0.0
  0
LINE
  5
6B6
330
1F
100
AcDbEntity
  8
--ANNO-REVS
  6
Continuous
 62
     7
370
    13
100
AcDbLine
 10
15.63227066011717
 20
38.2936732946237
 30
0.0
 11
15.75743524952199
 21
38.49585864072974
 31
0.0
  0
ELLIPSE
  5
6B7
330
1F
100
AcDbEntity
  8
--ANNO-REVS
  6
Continuous
 62
     7
370
    13
100
AcDbEllipse
 10
28.69519122093871
 20
37.96951669792013
 30
0.0
 11
-0.072811059545064
 21
-0.3762191742765322
 31
0.0
210
0.0
220
0.0
230
1.0
 40
0.9999945307441873
 41
0.0
 42
6.283185307179586
  0
POINT
  5
6B8
330
1F
100
AcDbEntity
  8
--ANNO-REVS
  6
Continuous
 62
     7
370
    13
100
AcDbPoint
 10
28.31906126187454
 20
38.04233623616135
 30
0.0
  0
LINE
  5
6B9
330
1F
100
AcDbEntity
  8
--ANNO-REVS
  6
Continuous
 62
     7
370
    13
100
AcDbLine
 10
28.6912501223913
 20
37.57964915847388
 30
0.0
 11
28.6912501223913
 21
37.3583844161552
 31
0.0
  0
LINE
  5
6BA
330
1F
100
AcDbEntity
  8
--ANNO-REVS
  6
Continuous
 62
     7
370
    13
100
AcDbLine
 10
28.49799505878778
 20
37.60864327777999
 30
0.0
 11
28.37280703032124
 21
37.44503862720943
 31
0.0
  0
LINE
  5
6BB
330
1F
100
AcDbEntity
  8
--ANNO-REVS
  6
Continuous
 62
     7
370
    13
100
AcDbLine
 10
28.3633142103383
 20
37.76341140209438
 30
0.0
 11
28.17029353735157
 21
37.63763739708576
 31
0.0
  0
LINE
  5
6BC
330
1F
100
AcDbEntity
  8
--ANNO-REVS
  6
Continuous
 62
     7
370
    13
100
AcDbLine
 10
28.31521725575803
 20
37.96608896849579
 30
0.0
 11
28.07395899382095
 21
37.96608896849579
 31
0.0
  0
LINE
  5
6BD
330
1F
100
AcDbEntity
  8
--ANNO-REVS
  6
Continuous
 62
     7
370
    13
100
AcDbLine
 10
28.35330573099819
 20
38.13916299998754
 30
0.0
 11
28.14129941804569
 21
38.27417199530065
 31
0.0
  0
LINE
  5
6BE
330
1F
100
AcDbEntity
  8
--ANNO-REVS
  6
Continuous
 62
     7
370
    13
100
AcDbLine
 10
28.49799505878778
 20
38.2936732946237
 30
0.0
 11
28.37280703032124
 21
38.49585864072974
 31
0.0
  0
LINE
  5
6BF
330
1F
100
AcDbEntity
  8
--ANNO-REVS
  6
Continuous
 62
     7
370
    13
100
AcDbLine
 10
28.86483981324003
 20
37.60864327777999
 30
0.0
 11
28.99002784170657
 21
37.44503862720943
 31
0.0
  0
LINE
  5
6C0
330
1F
100
AcDbEntity
  8
--ANNO-REVS
  6
Continuous
 62
     7
370
    13
100
AcDbLine
 10
28.99952066168948
 20
37.76341140209438
 30
0.0
 11
29.19261165186114
 21
37.63763739708576
 31
0.0
  0
LINE
  5
6C1
330
1F
100
AcDbEntity
  8
--ANNO-REVS
  6
Continuous
 62
     7
370
    13
100
AcDbLine
 10
29.04801608031841
 20
37.96608896849579
 30
0.0
 11
29.28887587820682
 21
37.96608896849579
 31
0.0
  0
LINE
  5
6C2
330
1F
100
AcDbEntity
  8
--ANNO-REVS
  6
Continuous
 62
     7
370
    13
100
AcDbLine
 10
29.00901348167241
 20
38.13916299998754
 30
0.0
 11
29.22153545398209
 21
38.27417199530065
 31
0.0
  0
LINE
  5
6C3
330
1F
100
AcDbEntity
  8
--ANNO-REVS
  6
Continuous
 62
     7
370
    13
100
AcDbLine
 10
28.86483981324003
 20
38.2936732946237
 30
0.0
 11
28.99002784170657
 21
38.49585864072974
 31
0.0
  0
ELLIPSE
  5
6C4
330
1F
100
AcDbEntity
  8
--ANNO-REVS
  6
Continuous
 62
     7
370
    13
100
AcDbEllipse
 10
28.69519122093871
 20
22.48985536351295
 30
0.0
 11
-0.072811059545064
 21
-0.3762191742765322
 31
0.0
210
0.0
220
0.0
230
1.0
 40
0.9999945307441873
 41
0.0
 42
6.283185307179586
  0
POINT
  5
6C5
330
1F
100
AcDbEntity
  8
--ANNO-REVS
  6
Continuous
 62
     7
370
    13
100
AcDbPoint
 10
28.31906126187454
 20
22.56245328761797
 30
0.0
  0
LINE
  5
6C6
330
1F
100
AcDbEntity
  8
--ANNO-REVS
  6
Continuous
 62
     7
370
    13
100
AcDbLine
 10
28.6912501223913
 20
22.10009435679409
 30
0.0
 11
28.6912501223913
 21
21.87857178479685
 31
0.0
  0
LINE
  5
6C7
330
1F
100
AcDbEntity
  8
--ANNO-REVS
  6
Continuous
 62
     7
370
    13
100
AcDbLine
 10
28.49799505878778
 20
22.12908847610008
 30
0.0
 11
28.37280703032124
 21
21.9653197520979
 31
0.0
  0
LINE
  5
6C8
330
1F
100
AcDbEntity
  8
--ANNO-REVS
  6
Continuous
 62
     7
370
    13
100
AcDbLine
 10
28.3633142103383
 20
22.28359877073608
 30
0.0
 11
28.17029353735157
 21
22.1580825954059
 31
0.0
  0
LINE
  5
6C9
330
1F
100
AcDbEntity
  8
--ANNO-REVS
  6
Continuous
 62
     7
370
    13
100
AcDbLine
 10
28.31521725575803
 20
22.48637009338425
 30
0.0
 11
28.07395899382095
 21
22.48637009338425
 31
0.0
  0
LINE
  5
6CA
330
1F
100
AcDbEntity
  8
--ANNO-REVS
  6
Continuous
 62
     7
370
    13
100
AcDbLine
 10
28.35330573099819
 20
22.65937380769075
 30
0.0
 11
28.14129941804569
 21
22.79464063268243
 31
0.0
  0
LINE
  5
6CB
330
1F
100
AcDbEntity
  8
--ANNO-REVS
  6
Continuous
 62
     7
370
    13
100
AcDbLine
 10
28.49799505878778
 20
22.81414193200548
 30
0.0
 11
28.37280703032124
 21
23.01597569218619
 31
0.0
  0
LINE
  5
6CC
330
1F
100
AcDbEntity
  8
--ANNO-REVS
  6
Continuous
 62
     7
370
    13
100
AcDbLine
 10
28.86483981324003
 20
22.12908847610008
 30
0.0
 11
28.99002784170657
 21
21.9653197520979
 31
0.0
  0
LINE
  5
6CD
330
1F
100
AcDbEntity
  8
--ANNO-REVS
  6
Continuous
 62
     7
370
    13
100
AcDbLine
 10
28.99952066168948
 20
22.28359877073608
 30
0.0
 11
29.19261165186114
 21
22.1580825954059
 31
0.0
  0
LINE
  5
6CE
330
1F
100
AcDbEntity
  8
--ANNO-REVS
  6
Continuous
 62
     7
370
    13
100
AcDbLine
 10
29.04801608031841
 20
22.48637009338425
 30
0.0
 11
29.28887587820682
 21
22.48637009338425
 31
0.0
  0
LINE
  5
6CF
330
1F
100
AcDbEntity
  8
--ANNO-REVS
  6
Continuous
 62
     7
370
    13
100
AcDbLine
 10
29.00901348167241
 20
22.65937380769075
 30
0.0
 11
29.22153545398209
 21
22.79464063268243
 31
0.0
  0
LINE
  5
6D0
330
1F
100
AcDbEntity
  8
--ANNO-REVS
  6
Continuous
 62
     7
370
    13
100
AcDbLine
 10
28.86483981324003
 20
22.81414193200548
 30
0.0
 11
28.99002784170657
 21
23.01597569218619
 31
0.0
  0
ELLIPSE
  5
6D1
330
1F
100
AcDbEntity
  8
--ANNO-REVS
  6
Continuous
 62
     7
370
    13
100
AcDbEllipse
 10
15.46257749959048
 20
22.48985536351295
 30
0.0
 11
-0.072811059545064
 21
-0.3762191742765322
 31
0.0
210
0.0
220
0.0
230
1.0
 40
0.9999945307441873
 41
0.0
 42
6.283185307179586
  0
POINT
  5
6D2
330
1F
100
AcDbEntity
  8
--ANNO-REVS
  6
Continuous
 62
     7
370
    13
100
AcDbPoint
 10
15.08649210875168
 20
22.56245328761797
 30
0.0
  0
LINE
  5
6D3
330
1F
100
AcDbEntity
  8
--ANNO-REVS
  6
Continuous
 62
     7
370
    13
100
AcDbLine
 10
15.26540246660312
 20
22.12908847610008
 30
0.0
 11
15.14023787719827
 21
21.9653197520979
 31
0.0
  0
LINE
  5
6D4
330
1F
100
AcDbEntity
  8
--ANNO-REVS
  6
Continuous
 62
     7
370
    13
100
AcDbLine
 10
15.13074505721536
 20
22.28359877073608
 30
0.0
 11
14.93772438422871
 21
22.1580825954059
 31
0.0
  0
LINE
  5
6D5
330
1F
100
AcDbEntity
  8
--ANNO-REVS
  6
Continuous
 62
     7
370
    13
100
AcDbLine
 10
15.08264810263509
 20
22.48637009338425
 30
0.0
 11
14.84138984069801
 21
22.48637009338425
 31
0.0
  0
LINE
  5
6D6
330
1F
100
AcDbEntity
  8
--ANNO-REVS
  6
Continuous
 62
     7
370
    13
100
AcDbLine
 10
15.12073657787536
 20
22.65937380769075
 30
0.0
 11
14.90873026492275
 21
22.79464063268243
 31
0.0
  0
LINE
  5
6D7
330
1F
100
AcDbEntity
  8
--ANNO-REVS
  6
Continuous
 62
     7
370
    13
100
AcDbLine
 10
15.26540246660312
 20
22.81414193200548
 30
0.0
 11
15.14023787719827
 21
23.01597569218619
 31
0.0
  0
LINE
  5
6D8
330
1F
100
AcDbEntity
  8
--ANNO-REVS
  6
Continuous
 62
     7
370
    13
100
AcDbLine
 10
15.63227066011717
 20
22.12908847610008
 30
0.0
 11
15.75743524952199
 21
21.9653197520979
 31
0.0
  0
LINE
  5
6D9
330
1F
100
AcDbEntity
  8
--ANNO-REVS
  6
Continuous
 62
     7
370
    13
100
AcDbLine
 10
15.76695150856653
 20
22.28359877073608
 30
0.0
 11
15.96004249873829
 21
22.1580825954059
 31
0.0
  0
LINE
  5
6DA
330
1F
100
AcDbEntity
  8
--ANNO-REVS
  6
Continuous
 62
     7
370
    13
100
AcDbLine
 10
15.81544692719555
 20
22.48637009338425
 30
0.0
 11
16.05628328602216
 21
22.48637009338425
 31
0.0
  0
LINE
  5
6DB
330
1F
100
AcDbEntity
  8
--ANNO-REVS
  6
Continuous
 62
     7
370
    13
100
AcDbLine
 10
15.77644432854944
 20
22.65937380769075
 30
0.0
 11
15.98896630085915
 21
22.79464063268243
 31
0.0
  0
LINE
  5
6DC
330
1F
100
AcDbEntity
  8
--ANNO-REVS
  6
Continuous
 62
     7
370
    13
100
AcDbLine
 10
15.63227066011717
 20
22.81414193200548
 30
0.0
 11
15.75743524952199
 21
23.01597569218619
 31
0.0
  0
LINE
  5
6DD
330
1F
100
AcDbEntity
  8
--ANNO-DIMS
  6
DGN Style 4
 62
     9
370
     0
100
AcDbLine
 10
14.7429860200902
 20
37.96951669610427
 30
0.0
 11
16.18216897905037
 21
37.96951669610427
 31
0.0
  0
LINE
  5
6DE
330
1F
100
AcDbEntity
  8
--ANNO-DIMS
  6
DGN Style 4
 62
     9
370
     0
100
AcDbLine
 10
27.9755997401206
 20
37.96951669610427
 30
0.0
 11
29.41478269908092
 21
37.96951669610427
 31
0.0
  0
LINE
  5
6DF
330
1F
100
AcDbEntity
  8
--ANNO-DIMS
  6
DGN Style 4
 62
     9
370
     0
100
AcDbLine
 10
27.9755997401206
 20
22.4898553624693
 30
0.0
 11
29.41478269908092
 21
22.4898553624693
 31
0.0
  0
LINE
  5
6E0
330
1F
100
AcDbEntity
  8
--ANNO-DIMS
  6
DGN Style 4
 62
     9
370
     0
100
AcDbLine
 10
14.7429860200902
 20
22.4898553624693
 30
0.0
 11
16.18216897905037
 21
22.4898553624693
 31
0.0
  0
LWPOLYLINE
  5
6E2
330
1F
100
AcDbEntity
  8
--ANNO-LEGN
  6
Continuous
 62
     7
370
    13
100
AcDbPolyline
 90
        4
 70
   129
 43
0.0
 10
27.19506622093871
 20
33.22340231596023
 10
27.19506622093871
 20
27.22940231596023
 10
26.94531622093871
 20
27.22940231596023
 10
26.94531622093871
 20
33.22340231596023
  0
LINE
  5
6E3
330
1F
100
AcDbEntity
  8
--ANNO-TEXT
  6
Continuous
 62
     9
370
     0
100
AcDbLine
 10
11.19918270445896
 20
18.92111443504494
 30
0.0
 11
11.19918270445896
 21
21.22640231596021
 31
0.0
  0
LINE
  5
6E4
330
1F
100
AcDbEntity
  8
--ANNO-TEXT
  6
Continuous
 62
     9
370
     0
100
AcDbLine
 10
11.19918270445896
 20
23.98985611246927
 30
0.0
 11
11.19918270445896
 21
22.4898553624693
 31
0.0
  0
SOLID
  5
6E5
330
1F
100
AcDbEntity
  8
--ANNO-TEXT
  6
Continuous
 62
     7
370
    13
100
AcDbTrace
 10
11.28243274608397
 20
20.72640206596024
 30
0.0
 11
11.19918270445896
 21
21.22640231596021
 31
0.0
 12
11.11593266283398
 22
20.72640206596024
 32
0.0
 13
11.11593266283398
 23
20.72640206596024
 33
0.0
  0
SOLID
  5
6E6
330
1F
100
AcDbEntity
  8
--ANNO-TEXT
  6
Continuous
 62
     7
370
    13
100
AcDbTrace
 10
-11.11593266283398
 20
22.98985561246927
 30
0.0
 11
-11.19918270445896
 21
22.4898553624693
 31
0.0
 12
-11.28243274608397
 22
22.98985561246927
 32
0.0
 13
-11.28243274608397
 23
22.98985561246927
 33
0.0
210
0.0
220
0.0
230
-1.0
  0
LINE
  5
6E7
330
1F
100
AcDbEntity
  8
--ANNO-TEXT
  6
Continuous
 62
     9
370
     0
100
AcDbLine
 10
13.23285193116359
 20
21.22640231596021
 30
0.0
 11
10.94918257945906
 21
21.22640231596021
 31
0.0
  0
TEXT
  5
6E8
330
1F
100
AcDbEntity
  8
--ANNO-TEXT
  6
Continuous
 62
     7
370
    13
100
AcDbText
 10
10.94918257945896
 20
27.93873985354321
 30
0.0
 40
0.5000002500000001
  1
1'-3 1/2"
 50
90.00000000000001
  7
Style-WORKING
 72
     1
 11
10.69918245445896
 21
29.7958836392575
 31
0.0
100
AcDbText
 73
     2
  0
LINE
  5
6E9
330
1F
100
AcDbEntity
  8
--ANNO-TEXT
  6
Continuous
 62
     9
370
     0
100
AcDbLine
 10
11.19918270445896
 20
22.4898553624693
 30
0.0
 11
11.19918270445896
 21
37.96951669792013
 31
0.0
  0
SOLID
  5
6EA
330
1F
100
AcDbEntity
  8
--ANNO-TEXT
  6
Continuous
 62
     7
370
    13
100
AcDbTrace
 10
-11.11593266283398
 20
22.98985561246927
 30
0.0
 11
-11.19918270445896
 21
22.4898553624693
 31
0.0
 12
-11.28243274608397
 22
22.98985561246927
 32
0.0
 13
-11.28243274608397
 23
22.98985561246927
 33
0.0
210
0.0
220
0.0
230
-1.0
  0
SOLID
  5
6EB
330
1F
100
AcDbEntity
  8
--ANNO-TEXT
  6
Continuous
 62
     7
370
    13
100
AcDbTrace
 10
11.28243274608397
 20
37.4695164479201
 30
0.0
 11
11.19918270445896
 21
37.96951669792013
 31
0.0
 12
11.11593266283398
 22
37.4695164479201
 32
0.0
 13
11.11593266283398
 23
37.4695164479201
 33
0.0
  0
LINE
  5
6EC
330
1F
100
AcDbEntity
  8
--ANNO-TEXT
  6
Continuous
 62
     9
370
     0
100
AcDbLine
 10
11.19918270445896
 20
36.4695159479201
 30
0.0
 11
11.19918270445896
 21
37.96951669792013
 31
0.0
  0
LINE
  5
6ED
330
1F
100
AcDbEntity
  8
--ANNO-TEXT
  6
Continuous
 62
     9
370
     0
100
AcDbLine
 10
11.19918270445896
 20
41.79823436673387
 30
0.0
 11
11.19918270445896
 21
39.22640231596022
 31
0.0
  0
SOLID
  5
6EE
330
1F
100
AcDbEntity
  8
--ANNO-TEXT
  6
Continuous
 62
     7
370
    13
100
AcDbTrace
 10
11.28243274608397
 20
37.4695164479201
 30
0.0
 11
11.19918270445896
 21
37.96951669792013
 31
0.0
 12
11.11593266283398
 22
37.4695164479201
 32
0.0
 13
11.11593266283398
 23
37.4695164479201
 33
0.0
  0
SOLID
  5
6EF
330
1F
100
AcDbEntity
  8
--ANNO-TEXT
  6
Continuous
 62
     7
370
    13
100
AcDbTrace
 10
-11.11593266283398
 20
39.72640256596019
 30
0.0
 11
-11.19918270445896
 21
39.22640231596022
 31
0.0
 12
-11.28243274608397
 22
39.72640256596019
 32
0.0
 13
-11.28243274608397
 23
39.72640256596019
 33
0.0
210
0.0
220
0.0
230
-1.0
  0
LINE
  5
6F0
330
1F
100
AcDbEntity
  8
--ANNO-TEXT
  6
Continuous
 62
     9
370
     0
100
AcDbLine
 10
12.19918320445904
 20
37.96951669792013
 30
0.0
 11
10.94918257945906
 21
37.96951669792013
 31
0.0
  0
TEXT
  5
6F1
330
1F
100
AcDbEntity
  8
--ANNO-TEXT
  6
Continuous
 62
     7
370
    13
100
AcDbText
 10
10.94918257945896
 20
39.68052506075868
 30
0.0
 40
0.5000002500000001
  1
1 1/4"
 50
90.00000000000001
  7
Style-WORKING
 72
     1
 11
10.69918245445896
 21
40.88290661433011
 31
0.0
100
AcDbText
 73
     2
  0
TEXT
  5
6F2
330
1F
100
AcDbEntity
  8
--ANNO-TEXT
  6
Continuous
 62
     7
370
    13
100
AcDbText
 10
10.94918257945896
 20
18.79321957345316
 30
0.0
 40
0.5000002500000001
  1
1 1/4"
 50
90.00000000000001
  7
Style-WORKING
 72
     1
 11
10.69918245445896
 21
19.99560112702458
 31
0.0
100
AcDbText
 73
     2
  0
LINE
  5
6F3
330
1F
100
AcDbEntity
  8
--ANNO-TEXT
  6
Continuous
 62
     9
370
     0
100
AcDbLine
 10
15.21257737459047
 20
37.96951669792013
 30
0.0
 11
12.73767574295218
 21
37.96951669792013
 31
0.0
  0
LINE
  5
6F4
330
1F
100
AcDbEntity
  8
--ANNO-TEXT
  6
Continuous
 62
     9
370
     0
100
AcDbLine
 10
12.15847836375471
 20
37.96951669792013
 30
0.0
 11
10.94918257945906
 21
37.96951669792013
 31
0.0
  0
LINE
  5
6F5
330
1F
100
AcDbEntity
  8
--ANNO-TEXT
  6
Continuous
 62
     9
370
     0
100
AcDbLine
 10
15.21257737457031
 20
22.4898553624693
 30
0.0
 11
12.79559548087187
 21
22.4898553624693
 31
0.0
  0
LINE
  5
6F6
330
1F
100
AcDbEntity
  8
--ANNO-TEXT
  6
Continuous
 62
     9
370
     0
100
AcDbLine
 10
12.04263888791533
 20
22.4898553624693
 30
0.0
 11
10.94918257945906
 21
22.4898553624693
 31
0.0
  0
LINE
  5
6F7
330
1F
100
AcDbEntity
  8
--ANNO-TEXT
  6
Continuous
 62
     9
370
     0
100
AcDbLine
 10
13.48285205616361
 20
39.47640244096026
 30
0.0
 11
13.48285205616361
 21
42.41830777265533
 31
0.0
  0
CIRCLE
  5
6F8
330
1F
100
AcDbEntity
  8
--ANNO-DIMS
  6
Continuous
 62
     9
370
     0
100
AcDbCircle
 10
16.33882414549941
 20
19.8813062030117
 30
0.0
 40
0.2459060764672493
  0
LINE
  5
6F9
330
1F
100
AcDbEntity
  8
--ANNO-TEXT
  6
Continuous
 62
     9
370
     0
100
AcDbLine
 10
55.48185216233614
 20
39.47640231596022
 30
0.0
 11
55.48185216233614
 21
42.26341939658264
 31
0.0
  0
LINE
  5
6FD
330
1F
100
AcDbEntity
  8
--ANNO-TEXT
  6
Continuous
 62
     9
370
     0
100
AcDbLine
 10
13.48285205616361
 20
39.47640244096026
 30
0.0
 11
13.48285205616361
 21
41.02872188932541
 31
0.0
  0
TEXT
  5
705
330
1F
100
AcDbEntity
  8
--ANNO-DIMS
  6
Continuous
 62
     7
370
    13
100
AcDbText
 10
19.86766203810527
 20
42.26341952158262
 30
0.0
 40
0.5000002500000001
  1
1'-1 1/4 "
  7
Style-WORKING
 72
     1
 11
21.9033773416767
 21
42.51341964658261
 31
0.0
100
AcDbText
 73
     2
  0
LINE
  5
706
330
1F
100
AcDbEntity
  8
--ANNO-DIMS
  6
Continuous
 62
     9
370
     0
100
AcDbLine
 10
28.69519122093871
 20
42.01341939658265
 30
0.0
 11
15.46257749957035
 21
42.01341939658265
 31
0.0
  0
SOLID
  5
707
330
1F
100
AcDbEntity
  8
--ANNO-DIMS
  6
Continuous
 62
     7
370
    13
100
AcDbTrace
 10
28.19519097093868
 20
41.93016935495767
 30
0.0
 11
28.69519122093871
 21
42.01341939658265
 31
0.0
 12
28.19519097093868
 22
42.09666943820763
 32
0.0
 13
28.19519097093868
 23
42.09666943820763
 33
0.0
  0
SOLID
  5
708
330
1F
100
AcDbEntity
  8
--ANNO-DIMS
  6
Continuous
 62
     7
370
    13
100
AcDbTrace
 10
-15.96257774957038
 20
42.09666943820763
 30
0.0
 11
-15.46257749957035
 21
42.01341939658265
 31
0.0
 12
-15.96257774957038
 22
41.93016935495767
 32
0.0
 13
-15.96257774957038
 23
41.93016935495767
 33
0.0
210
0.0
220
0.0
230
-1.0
  0
LINE
  5
709
330
1F
100
AcDbEntity
  8
--ANNO-DIMS
  6
Continuous
 62
     9
370
     0
100
AcDbLine
 10
28.69519122093871
 20
38.21951682292017
 30
0.0
 11
28.69519122093871
 21
42.26341952158269
 31
0.0
  0
TEXT
  5
70A
330
1F
100
AcDbEntity
  8
--ANNO-DIMS
  6
Continuous
 62
     7
370
    13
100
AcDbText
 10
14.05248627964975
 20
42.26341952158262
 30
0.0
 40
0.5000002500000001
  1
2"
  7
Style-WORKING
 72
     1
 11
14.38581977964975
 21
42.51341964658261
 31
0.0
100
AcDbText
 73
     2
  0
LINE
  5
70B
330
1F
100
AcDbEntity
  8
--ANNO-DIMS
  6
Continuous
 62
     9
370
     0
100
AcDbLine
 10
15.46257749957035
 20
42.01341939658265
 30
0.0
 11
13.48285205616361
 21
42.01341939658265
 31
0.0
  0
SOLID
  5
70C
330
1F
100
AcDbEntity
  8
--ANNO-DIMS
  6
Continuous
 62
     7
370
    13
100
AcDbTrace
 10
14.9625772495703
 20
41.93016935495767
 30
0.0
 11
15.46257749957035
 21
42.01341939658265
 31
0.0
 12
14.9625772495703
 22
42.09666943820763
 32
0.0
 13
14.9625772495703
 23
42.09666943820763
 33
0.0
  0
SOLID
  5
70D
330
1F
100
AcDbEntity
  8
--ANNO-DIMS
  6
Continuous
 62
     7
370
    13
100
AcDbTrace
 10
-13.98285230616366
 20
42.09666943820763
 30
0.0
 11
-13.48285205616361
 21
42.01341939658265
 31
0.0
 12
-13.98285230616366
 22
41.93016935495767
 32
0.0
 13
-13.98285230616366
 23
41.93016935495767
 33
0.0
210
0.0
220
0.0
230
-1.0
  0
LINE
  5
70E
330
1F
100
AcDbEntity
  8
--ANNO-DIMS
  6
Continuous
 62
     9
370
     0
100
AcDbLine
 10
13.48285205616361
 20
39.47640244096026
 30
0.0
 11
13.48285205616361
 21
42.26341952158269
 31
0.0
  0
LINE
  5
70F
330
1F
100
AcDbEntity
  8
--ANNO-TEXT
  6
Continuous
 62
     9
370
     0
100
AcDbLine
 10
15.46257749957035
 20
38.21951682110431
 30
0.0
 11
15.46257749957035
 21
40.54876646068332
 31
0.0
  0
LINE
  5
710
330
1F
100
AcDbEntity
  8
--ANNO-DIMS
  6
Continuous
 62
     9
370
     0
100
AcDbLine
 10
15.46257749957035
 20
38.21951682110431
 30
0.0
 11
15.46257749957035
 21
40.2414681713435
 31
0.0
  0
LINE
  5
711
330
1F
100
AcDbEntity
  8
--ANNO-DIMS
  6
Continuous
 62
     9
370
     0
100
AcDbLine
 10
15.46257749957035
 20
41.64533328685523
 30
0.0
 11
15.46257749957035
 21
42.26341952158269
 31
0.0
  0
LINE
  5
712
330
1F
100
AcDbEntity
  8
--ANNO-DIMS
  6
Continuous
 62
     9
370
     0
100
AcDbLine
 10
20.25136081291308
 20
20.3504152110044
 30
0.0
 11
19.59192498189401
 21
19.88130621033296
 31
0.0
  0
LWPOLYLINE
  5
713
330
1F
100
AcDbEntity
  8
--ANNO-DIMS
  6
Continuous
 62
     9
370
     0
100
AcDbPolyline
 90
        3
 70
   128
 43
0.0
 10
16.33882414492385
 20
19.88130621033296
 10
16.33882414492385
 20
19.88130621033296
 10
19.59192498189401
 20
19.88130621033296
  0
LWPOLYLINE
  5
714
330
1F
100
AcDbEntity
  8
--ANNO-NOTE
  6
Continuous
 62
     9
370
     0
100
AcDbPolyline
 90
        3
 70
   128
 43
0.0
 10
18.54695702632904
 20
19.88130621033296
 10
18.54695702632904
 20
19.16875202090459
 10
19.16212526724212
 20
19.88130621033296
  0
LINE
  5
715
330
1F
100
AcDbEntity
  8
--ANNO-DIMS
  6
Continuous
 62
     9
370
     0
100
AcDbLine
 10
20.25136081291308
 20
19.41219720966152
 30
0.0
 11
19.59192498189401
 21
19.88130621033296
 31
0.0
  0
TEXT
  5
716
330
1F
100
AcDbEntity
  8
--ANNO-TEXT
  6
Continuous
 62
     7
370
    13
100
AcDbText
 10
20.62530676081792
 20
19.59973141328105
 30
0.0
 40
0.5496832500000001
  1
TYP
  7
Style-WORKING
100
AcDbText
  0
TEXT
  5
717
330
1F
100
AcDbEntity
  8
--ANNO-TEXT
  6
Continuous
 62
     7
370
    13
100
AcDbText
 10
16.8616817608179
 20
19.16198141328105
 30
0.0
 40
0.5496832500000001
  1
1/4
  7
Style-WORKING
100
AcDbText
  0
ARC
  5
718
330
1F
100
AcDbEntity
  8
--ANNO-REVS
  6
Continuous
 62
     7
370
    13
100
AcDbCircle
 10
-54.48185216233614
 20
38.22640231596022
 30
0.0
 40
1.0
210
0.0
220
0.0
230
-1.0
100
AcDbArc
 50
90.0
 51
180.0
  0
LWPOLYLINE
  5
719
330
1F
100
AcDbEntity
  8
--ANNO-LEGN
  6
Continuous
 62
     7
370
    13
100
AcDbPolyline
 90
        2
 70
   128
 43
0.0
 10
55.48185216233614
 20
38.22640231596022
 10
55.48185216233614
 20
22.22640231596022
  0
ARC
  5
71A
330
1F
100
AcDbEntity
  8
--ANNO-REVS
  6
Continuous
 62
     7
370
    13
100
AcDbCircle
 10
-54.48185216233614
 20
22.22640231596022
 30
0.0
 40
1.0
210
0.0
220
0.0
230
-1.0
100
AcDbArc
 50
180.0
 51
270.0
  0
LWPOLYLINE
  5
71B
330
1F
100
AcDbEntity
  8
--ANNO-LEGN
  6
Continuous
 62
     7
370
    13
100
AcDbPolyline
 90
        2
 70
   128
 43
0.0
 10
54.48185216233614
 20
21.22640231596021
 10
14.48285205616361
 20
21.22640231596021
  0
ARC
  5
71C
330
1F
100
AcDbEntity
  8
--ANNO-REVS
  6
Continuous
 62
     7
370
    13
100
AcDbCircle
 10
-14.48285205616361
 20
22.22640231596022
 30
0.0
 40
1.0
210
0.0
220
0.0
230
-1.0
100
AcDbArc
 50
270.0
 51
0.0
  0
LWPOLYLINE
  5
71D
330
1F
100
AcDbEntity
  8
--ANNO-LEGN
  6
Continuous
 62
     7
370
    13
100
AcDbPolyline
 90
        2
 70
   128
 43
0.0
 10
14.48285205616361
 20
39.22640231596022
 10
54.48185216233614
 20
39.22640231596027
  0
LWPOLYLINE
  5
71E
330
1F
100
AcDbEntity
  8
--ANNO-LEGN
  6
Continuous
 62
     7
370
    13
100
AcDbPolyline
 90
        2
 70
   128
 43
0.0
 10
13.48285205616361
 20
22.22640231596022
 10
13.48285205616361
 20
38.22640231596022
  0
ARC
  5
71F
330
1F
100
AcDbEntity
  8
--ANNO-REVS
  6
Continuous
 62
     7
370
    13
100
AcDbCircle
 10
14.48285205616361
 20
38.22640231596022
 30
0.0
 40
1.0
100
AcDbArc
 50
90.0
 51
180.0
  0
INSERT
  5
720
330
1F
100
AcDbEntity
  8
--ANNO-REVS
  6
Continuous
 62
     7
370
    13
100
AcDbBlockReference
  2
*U9
 10
-52.89413543213263
 20
22.5859853561807
 30
0.0
210
0.0
220
0.0
230
-1.0
  0
TEXT
  5
721
330
1F
100
AcDbEntity
  8
--ANNO-TEXT
  6
Continuous
 62
     7
370
    13
100
AcDbText
 10
28.28909803275853
 20
17.54148458148011
 30
0.0
 40
0.5000002500000001
  1
1/4" x 6" SLOT IN MOUNTING PLATE        
  7
Style-WORKING
 72
     2
 11
46.24148796132995
 21
17.54148458148011
 31
0.0
100
AcDbText
  0
LINE
  5
726
330
1F
100
AcDbEntity
  8
--ANNO-TEXT
  6
Continuous
 62
     9
370
     0
100
AcDbLine
 10
13.23285193116359
 20
39.22640231596022
 30
0.0
 11
10.9679864215482
 21
39.22640231596022
 31
0.0
  0
LINE
  5
731
330
1F
100
AcDbEntity
  8
--ANNO-TEXT
  6
Continuous
 62
     9
370
     0
100
AcDbLine
 10
13.23285193116359
 20
21.22640231596021
 30
0.0
 11
12.19445694473342
 21
21.22640231596021
 31
0.0
  0
MTEXT
  5
733
330
1F
100
AcDbEntity
  8
--ANNO-TEXT
  6
Continuous
 62
     7
370
    13
100
AcDbMText
 10
37.2053864853684
 20
39.54910637731904
 30
0.0
 40
0.5000002500000001
 41
0.0
 71
     7
 72
     1
  1
3/4" X 3" ALL-THREAD \PWITH (2) HEX NUTS AND (2) WASHERS\P(TYPICAL)
  7
Style-WORKING
 73
     2
 44
0.8999998500000749
1001
ACAD
1000
ACAD_MTEXT_DEFINED_HEIGHT_BEGIN
1070
    46
1040
0.0
1000
ACAD_MTEXT_DEFINED_HEIGHT_END
1000
MTEXTBEGIN
1070
    73
1070
     2
1070
    44
1040
0.8999998500000749
1070
    74
1070
     0
1000
MTEXTEND
  0
TEXT
  5
736
330
1F
100
AcDbEntity
  8
--ANNO-TEXT
  6
Continuous
 62
     7
370
    13
100
AcDbText
 10
57.13751420079852
 20
29.43511163711195
 30
0.0
 40
0.5000002500000001
  1
1'-6"
 50
90.0
  7
Style-WORKING
 11
56.88751407579852
 21
29.43511163711195
 31
0.0
100
AcDbText
 73
     2
  0
LINE
  5
737
330
1F
100
AcDbEntity
  8
--ANNO-TEXT
  6
Continuous
 62
     9
370
     0
100
AcDbLine
 10
57.38751432579855
 20
39.22640231596022
 30
0.0
 11
57.38751432579855
 21
21.22640231596021
 31
0.0
  0
SOLID
  5
738
330
1F
100
AcDbEntity
  8
--ANNO-TEXT
  6
Continuous
 62
     7
370
    13
100
AcDbTrace
 10
-57.30426428417354
 20
38.72640206596024
 30
0.0
 11
-57.38751432579855
 21
39.22640231596022
 31
0.0
 12
-57.47076436742353
 22
38.72640206596024
 32
0.0
 13
-57.47076436742353
 23
38.72640206596024
 33
0.0
210
0.0
220
0.0
230
-1.0
  0
SOLID
  5
739
330
1F
100
AcDbEntity
  8
--ANNO-TEXT
  6
Continuous
 62
     7
370
    13
100
AcDbTrace
 10
57.47076436742353
 20
21.72640256596019
 30
0.0
 11
57.38751432579855
 21
21.22640231596021
 31
0.0
 12
57.30426428417354
 22
21.72640256596019
 32
0.0
 13
57.30426428417354
 23
21.72640256596019
 33
0.0
  0
LINE
  5
73A
330
1F
100
AcDbEntity
  8
--ANNO-TEXT
  6
Continuous
 62
     9
370
     0
100
AcDbLine
 10
55.73185228733612
 20
39.22640231596022
 30
0.0
 11
57.63751445079853
 21
39.22640231596022
 31
0.0
  0
LINE
  5
73B
330
1F
100
AcDbEntity
  8
--ANNO-TEXT
  6
Continuous
 62
     9
370
     0
100
AcDbLine
 10
55.73185228733612
 20
21.22640231596021
 30
0.0
 11
57.63751445079853
 21
21.22640231596021
 31
0.0
  0
TEXT
  5
73C
330
1F
100
AcDbEntity
  8
--ANNO-TEXT
  6
Continuous
 62
     7
370
    13
100
AcDbText
 10
30.4048283796692
 20
43.46551620847876
 30
0.0
 40
0.5000002500000001
  1
3'-6"
  7
Style-WORKING
 11
30.4048283796692
 21
43.71551633347876
 31
0.0
100
AcDbText
 73
     2
  0
LINE
  5
73D
330
1F
100
AcDbEntity
  8
--ANNO-TEXT
  6
Continuous
 62
     9
370
     0
100
AcDbLine
 10
13.48285205616361
 20
43.21551608347873
 30
0.0
 11
55.48185216233614
 21
43.21551608347873
 31
0.0
  0
SOLID
  5
73E
330
1F
100
AcDbEntity
  8
--ANNO-TEXT
  6
Continuous
 62
     7
370
    13
100
AcDbTrace
 10
13.98285230616363
 20
43.13226604185375
 30
0.0
 11
13.48285205616361
 21
43.21551608347873
 31
0.0
 12
13.98285230616363
 22
43.29876612510377
 32
0.0
 13
13.98285230616363
 23
43.29876612510377
 33
0.0
  0
SOLID
  5
73F
330
1F
100
AcDbEntity
  8
--ANNO-TEXT
  6
Continuous
 62
     7
370
    13
100
AcDbTrace
 10
-54.98185191233614
 20
43.29876612510377
 30
0.0
 11
-55.48185216233614
 21
43.21551608347873
 31
0.0
 12
-54.98185191233614
 22
43.13226604185375
 32
0.0
 13
-54.98185191233614
 23
43.13226604185375
 33
0.0
210
0.0
220
0.0
230
-1.0
  0
LINE
  5
740
330
1F
100
AcDbEntity
  8
--ANNO-TEXT
  6
Continuous
 62
     9
370
     0
100
AcDbLine
 10
13.48285205616361
 20
39.47640244096026
 30
0.0
 11
13.48285205616361
 21
43.46551620847877
 31
0.0
  0
LINE
  5
741
330
1F
100
AcDbEntity
  8
--ANNO-TEXT
  6
Continuous
 62
     9
370
     0
100
AcDbLine
 10
55.48185216233614
 20
39.47640244096026
 30
0.0
 11
55.48185216233614
 21
43.46551620847877
 31
0.0
  0
LWPOLYLINE
  5
742
330
1F
100
AcDbEntity
  8
--ANNO-REVS
  6
Continuous
 62
     9
370
     0
100
AcDbPolyline
 90
        3
 70
   128
 43
0.0
 10
55.18895894352266
 20
21.51929553477366
 10
54.64102072946369
 20
22.49969090131661
 10
54.38420187795921
 20
22.49969090131656
  0
SOLID
  5
743
330
1F
100
AcDbEntity
  8
--ANNO-REVS
  6
Continuous
 62
     7
370
    13
100
AcDbTrace
 10
55.01769468772812
 20
21.99636929648959
 30
0.0
 11
55.18895894352266
 21
21.51929553477366
 31
0.0
 12
54.87235395814775
 22
21.91513906783489
 32
0.0
 13
54.87235395814775
 23
21.91513906783489
 33
0.0
  0
LWPOLYLINE
  5
744
330
1F
100
AcDbEntity
  8
--ANNO-REVS
  6
Continuous
 62
     9
370
     0
100
AcDbPolyline
 90
        3
 70
   128
 43
0.0
 10
27.19506622093871
 20
27.22940231596023
 10
25.99895595097925
 20
17.66190414134192
 10
27.86444043452059
 20
17.66612400466221
  0
SOLID
  5
745
330
1F
100
AcDbEntity
  8
--ANNO-REVS
  6
Continuous
 62
     7
370
    13
100
AcDbTrace
 10
-27.05545796127213
 20
26.74212379882297
 30
0.0
 11
-27.19506622093871
 21
27.22940231596023
 31
0.0
 12
-27.22087644506946
 22
26.72317642590626
 32
0.0
 13
-27.22087644506946
 23
26.72317642590626
 33
0.0
210
0.0
220
0.0
230
-1.0
  0
LWPOLYLINE
  5
746
330
1F
100
AcDbEntity
  8
--ANNO-REVS
  6
Continuous
 62
     9
370
     0
100
AcDbPolyline
 90
        3
 70
   128
 43
0.0
 10
29.0348396611314
 20
38.06737459707459
 10
35.46255550656539
 20
40.73079276507217
 10
36.98958192288401
 20
40.73079276507217
  0
SOLID
  5
747
330
1F
100
AcDbEntity
  8
--ANNO-REVS
  6
Continuous
 62
     7
370
    13
100
AcDbTrace
 10
29.52862331071035
 20
38.1818670721073
 30
0.0
 11
29.0348396611314
 21
38.06737459707459
 31
0.0
 12
29.46488665253744
 22
38.33568487383131
 32
0.0
 13
29.46488665253744
 23
38.33568487383131
 33
0.0
  0
LINE
  5
748
330
1F
100
AcDbEntity
  8
--ANNO-REVS
  6
Continuous
 62
     9
370
     0
100
AcDbLine
 10
15.38976644004546
 20
22.11363618923643
 30
0.0
 11
16.33882414492385
 21
19.88130621033296
 31
0.0
  0
SOLID
  5
749
330
1F
100
AcDbEntity
  8
--ANNO-REVS
  6
Continuous
 62
     7
370
    13
100
AcDbTrace
 10
-15.58009663042048
 20
21.32566374003436
 30
0.0
 11
-15.38976644004546
 21
22.11363618923643
 31
0.0
 12
-15.82514539076797
 22
21.4298443120271
 32
0.0
 13
-15.82514539076797
 23
21.4298443120271
 33
0.0
210
0.0
220
0.0
230
-1.0
  0
LINE
  5
756
330
1F
100
AcDbEntity
  8
99
 62
     7
100
AcDbLine
 10
53.23776087559867
 20
10.44390230923136
 30
0.0
 11
64.50271308419932
 21
10.44390230923136
 31
0.0
  0
TEXT
  5
757
330
1F
100
AcDbEntity
  8
99
 62
     7
100
AcDbText
 10
53.41657006078108
 20
10.77720786626313
 30
0.0
 40
1.251661055185216
  1
T1120804
 41
1.00000024
 51
30.0000008
  7
MONOTXT
100
AcDbText
  0
TEXT
  5
758
330
1F
100
AcDbEntity
  8
99
 62
     7
100
AcDbText
 10
50.28741667232981
 20
12.65469929894331
 30
0.0
 40
1.251661055185216
  1
CATALOG NUMBER
 41
1.00000024
 51
30.0000008
  7
MONOTXT
100
AcDbText
  0
TEXT
  5
759
330
1F
100
AcDbEntity
  8
99
 62
     7
100
AcDbText
 10
15.54700446871672
 20
6.344334348886068
 30
0.0
 40
0.6211978545449606
  1
    ASTM A153 (LATEST REVISION).
  7
MONOTXT
100
AcDbText
  0
TEXT
  5
75A
330
1F
100
AcDbEntity
  8
99
 62
     7
100
AcDbText
 10
15.54700446871672
 20
7.338235510451237
 30
0.0
 40
0.6211978545449606
  1
1.  FINISH:  HOT DIP GALVANIZE PER 
  7
MONOTXT
100
AcDbText
  0
TEXT
  5
75B
330
1F
100
AcDbEntity
  8
99
 62
     7
100
AcDbText
 10
22.19678538077198
 20
8.711286024933603
 30
0.0
 40
1.22298327613539
  1
-NOTES-
  7
MONOTXT
100
AcDbText
  0
TEXT
  5
75C
330
1F
100
AcDbEntity
  8
99
 62
     7
100
AcDbText
 10
15.54700446871672
 20
5.350433187320899
 30
0.0
 40
0.6211978545449606
  1
2.  MATERIAL: STEEL 3/8" THICK PER ASTM A36.
  7
MONOTXT
100
AcDbText
  0
LINE
  5
775
330
1F
100
AcDbEntity
  8
title
100
AcDbLine
 10
15.46257749957035
 20
40.54876646068332
 30
0.0
 11
15.46257749957035
 21
41.64533328685523
 31
0.0
  0
LINE
  5
776
330
1F
100
AcDbEntity
  8
title
100
AcDbLine
 10
12.04263888791533
 20
22.4898553624693
 30
0.0
 11
12.79559548087187
 21
22.4898553624693
 31
0.0
  0
LINE
  5
777
330
1F
100
AcDbEntity
  8
title
100
AcDbLine
 10
12.15847836375471
 20
37.96951669792013
 30
0.0
 11
12.73767574295218
 21
37.96951669792013
 31
0.0
  0
LINE
  5
778
330
1F
100
AcDbEntity
  8
title
  6
CENTER
100
AcDbLine
 10
28.69519122093871
 20
21.22640231596021
 30
0.0
 11
28.69519122093871
 21
39.22640231596023
 31
0.0
  0
LINE
  5
77A
330
1F
100
AcDbEntity
  8
title
100
AcDbLine
 10
28.41394122093871
 20
39.22640231596023
 30
0.0
 11
20.29793931639586
 21
39.22640231596023
 31
0.0
  0
LINE
  5
77B
330
1F
100
AcDbEntity
  8
title
100
AcDbLine
 10
26.94531622093871
 20
33.22340231596023
 30
0.0
 11
20.29793931639586
 21
33.22340231596023
 31
0.0
  0
LINE
  5
77C
330
1F
100
AcDbEntity
  8
title
100
AcDbLine
 10
20.86043931639586
 20
38.66390231596024
 30
0.0
 11
20.86043931639586
 21
36.91115231596023
 31
0.0
  0
LINE
  5
77D
330
1F
100
AcDbEntity
  8
title
100
AcDbLine
 10
20.86043931639586
 20
33.78590231596023
 30
0.0
 11
20.86043931639586
 21
35.53865231596023
 31
0.0
  0
SOLID
  5
77E
330
1F
100
AcDbEntity
  8
title
100
AcDbTrace
 10
20.76668931639586
 20
38.66390231596024
 30
0.0
 11
20.95418931639585
 21
38.66390231596024
 31
0.0
 12
20.86043931639586
 22
39.22640231596023
 32
0.0
 13
20.86043931639586
 23
39.22640231596023
 33
0.0
  0
SOLID
  5
77F
330
1F
100
AcDbEntity
  8
title
100
AcDbTrace
 10
20.76668931639586
 20
33.78590231596023
 30
0.0
 11
20.95418931639585
 21
33.78590231596023
 31
0.0
 12
20.86043931639586
 22
33.22340231596023
 32
0.0
 13
20.86043931639586
 23
33.22340231596023
 33
0.0
  0
MTEXT
  5
780
330
1F
100
AcDbEntity
  8
title
100
AcDbMText
 10
20.86043931639585
 20
36.22490231596024
 30
0.0
 40
0.5625
 41
0.0
 71
     4
 72
     1
  1
6" (TYPICAL)
 73
     1
 44
1.0
1001
ACAD
1000
ACAD_MTEXT_DEFINED_HEIGHT_BEGIN
1070
    46
1040
0.0
1000
ACAD_MTEXT_DEFINED_HEIGHT_END
1000
MTEXTBEGIN
1070
    73
1070
     1
1070
    44
1040
1.0
1070
    74
1070
     0
1000
MTEXTEND
  0
TEXT
  5
797
330
1F
100
AcDbEntity
  8
99
 62
     7
100
AcDbText
 10
15.54700446871672
 20
4.356532025755729
 30
0.0
 40
0.6211978545449606
  1
3.  ALL HARDWARE WILL BE GALVANIZED.
  7
MONOTXT
100
AcDbText
  0
LWPOLYLINE
  5
7AB
330
1F
100
AcDbEntity
  8
--ANNO-LEGN
  6
Continuous
 62
     7
370
    13
100
AcDbPolyline
 90
        4
 70
   129
 43
0.0
 10
17.21245249957029
 20
33.22340231596023
 10
17.21245249957029
 20
27.22940231596023
 10
16.96270249957028
 20
27.22940231596023
 10
16.96270249957028
 20
33.22340231596023
  0
LINE
  5
7AC
330
1F
100
AcDbEntity
  8
title
100
AcDbLine
 10
15.46257749957028
 20
38.25076669610427
 30
0.0
 11
15.46257749957028
 21
41.19102418330093
 31
0.0
  0
LINE
  5
7AD
330
1F
100
AcDbEntity
  8
title
100
AcDbLine
 10
17.08757749957029
 20
33.50465231596023
 30
0.0
 11
17.08757749957029
 21
41.19102418330093
 31
0.0
  0
LINE
  5
7AE
330
1F
100
AcDbEntity
  8
title
100
AcDbLine
 10
14.90007749957029
 20
40.62852418330092
 30
0.0
 11
14.33757749957029
 21
40.62852418330092
 31
0.0
  0
LINE
  5
7AF
330
1F
100
AcDbEntity
  8
title
100
AcDbLine
 10
17.65007749957028
 20
40.62852418330092
 30
0.0
 11
18.21257749957029
 21
40.62852418330092
 31
0.0
  0
SOLID
  5
7B0
330
1F
100
AcDbEntity
  8
title
100
AcDbTrace
 10
14.90007749957029
 20
40.72227418330093
 30
0.0
 11
14.90007749957029
 21
40.53477418330092
 31
0.0
 12
15.46257749957028
 22
40.62852418330092
 32
0.0
 13
15.46257749957028
 23
40.62852418330092
 33
0.0
  0
SOLID
  5
7B1
330
1F
100
AcDbEntity
  8
title
100
AcDbTrace
 10
17.65007749957028
 20
40.72227418330093
 30
0.0
 11
17.65007749957028
 21
40.53477418330092
 31
0.0
 12
17.08757749957029
 22
40.62852418330092
 32
0.0
 13
17.08757749957029
 23
40.62852418330092
 33
0.0
  0
MTEXT
  5
7B2
330
1F
100
AcDbEntity
  8
title
100
AcDbMText
 10
20.02382749957029
 20
40.62852418330092
 30
0.0
 40
0.5625
 41
0.0
 71
     5
 72
     1
  1
\A1;1-5/8"
 73
     1
 44
1.0
1001
ACAD
1000
MTEXTBEGIN
1070
    73
1070
     1
1070
    44
1040
1.0
1070
    74
1070
     0
1000
MTEXTEND
  0
LEADER
  5
7BA
330
1F
100
AcDbEntity
  8
title
100
AcDbLeader
  3
Standard
 76
     2
 10
17.21245249957029
 20
27.22940231596023
 30
0.0
 10
25.99895595097925
 20
17.66190414134192
 30
0.0
1001
ACAD
1000
DSTYLE
1002
{
1070
   147
1040
0.09
1070
    77
1070
     0
1070
    40
1040
4.5
1070
    41
1040
0.125
1070
    44
1040
0.125
1070
   140
1040
0.125
1070
   141
1040
-0.09
1070
   271
1070
     3
1002
}
  0
LINE
  5
7BB
330
1F
100
AcDbEntity
  8
title
100
AcDbLine
 10
27.07019122093871
 20
33.50465231596023
 30
0.0
 11
27.07019122093871
 21
41.20265188748056
 31
0.0
  0
LINE
  5
7BC
330
1F
100
AcDbEntity
  8
title
100
AcDbLine
 10
28.69519121960076
 20
38.25076669610427
 30
0.0
 11
28.69519121960076
 21
41.20265188748056
 31
0.0
  0
LINE
  5
7BD
330
1F
100
AcDbEntity
  8
title
100
AcDbLine
 10
26.50769122093871
 20
40.64015188748055
 30
0.0
 11
25.94519122093871
 21
40.64015188748055
 31
0.0
  0
LINE
  5
7BE
330
1F
100
AcDbEntity
  8
title
100
AcDbLine
 10
29.25769121960076
 20
40.64015188748055
 30
0.0
 11
29.82019121960076
 21
40.64015188748055
 31
0.0
  0
SOLID
  5
7BF
330
1F
100
AcDbEntity
  8
title
100
AcDbTrace
 10
26.50769122093871
 20
40.73390188748056
 30
0.0
 11
26.50769122093871
 21
40.54640188748055
 31
0.0
 12
27.07019122093871
 22
40.64015188748055
 32
0.0
 13
27.07019122093871
 23
40.64015188748055
 33
0.0
  0
SOLID
  5
7C0
330
1F
100
AcDbEntity
  8
title
100
AcDbTrace
 10
29.25769121960076
 20
40.73390188748056
 30
0.0
 11
29.25769121960076
 21
40.54640188748055
 31
0.0
 12
28.69519121960076
 22
40.64015188748055
 32
0.0
 13
28.69519121960076
 23
40.64015188748055
 33
0.0
  0
MTEXT
  5
7C1
330
1F
100
AcDbEntity
  8
title
100
AcDbMText
 10
31.63144121960076
 20
40.64015188748055
 30
0.0
 40
0.5625
 41
0.0
 71
     5
 72
     1
  1
\A1;1-5/8"
 73
     1
 44
1.0
1001
ACAD
1000
MTEXTBEGIN
1070
    73
1070
     1
1070
    44
1040
1.0
1070
    74
1070
     0
1000
MTEXTEND
  0
ENDSEC
  0
SECTION
  2
OBJECTS
  0
DICTIONARY
  5
C
330
0
100
AcDbDictionary
281
     1
  3
ACAD_COLOR
350
73
  3
ACAD_GROUP
350
D
  3
ACAD_LAYOUT
350
1A
  3
ACAD_MATERIAL
350
72
  3
ACAD_MLINESTYLE
350
17
  3
ACAD_PLOTSETTINGS
350
19
  3
ACAD_PLOTSTYLENAME
350
E
  3
ACAD_TABLESTYLE
350
86
  3
ACDBHEADERROUNDTRIPXREC
350
7DA
  3
AcDbVariableDictionary
350
66
  0
DICTIONARY
  5
7A7
330
1F
100
AcDbDictionary
280
     1
281
     1
  3
ACAD_SORTENTS
360
7A8
  0
DICTIONARY
  5
57E
330
520
100
AcDbDictionary
280
     1
281
     1
  0
DICTIONARY
  5
59D
330
58D
100
AcDbDictionary
280
     1
281
     1
  0
DICTIONARY
  5
5E8
330
5CB
100
AcDbDictionary
280
     1
281
     1
  0
DICTIONARY
  5
73
102
{ACAD_REACTORS
330
C
102
}
330
C
100
AcDbDictionary
281
     1
  0
DICTIONARY
  5
D
102
{ACAD_REACTORS
330
C
102
}
330
C
100
AcDbDictionary
281
     1
  0
DICTIONARY
  5
1A
102
{ACAD_REACTORS
330
C
102
}
330
C
100
AcDbDictionary
281
     1
  3
Layout1
350
59
  3
Layout2
350
5E
  3
Model
350
22
  0
DICTIONARY
  5
72
102
{ACAD_REACTORS
330
C
102
}
330
C
100
AcDbDictionary
281
     1
  0
DICTIONARY
  5
17
102
{ACAD_REACTORS
330
C
102
}
330
C
100
AcDbDictionary
281
     1
  3
Standard
350
18
  0
DICTIONARY
  5
19
102
{ACAD_REACTORS
330
C
102
}
330
C
100
AcDbDictionary
281
     1
  0
ACDBDICTIONARYWDFLT
  5
E
102
{ACAD_REACTORS
330
C
102
}
330
C
100
AcDbDictionary
281
     1
  3
Normal
350
F
100
AcDbDictionaryWithDefault
340
F
  0
DICTIONARY
  5
86
102
{ACAD_REACTORS
330
C
102
}
330
C
100
AcDbDictionary
281
     1
  3
Standard
350
87
  0
DICTIONARY
  5
7DA
102
{ACAD_REACTORS
330
C
102
}
330
C
100
AcDbDictionary
281
     1
  0
DICTIONARY
  5
66
102
{ACAD_REACTORS
330
C
102
}
330
C
100
AcDbDictionary
281
     1
  3
CTABLESTYLE
350
767
  3
DIMASSOC
350
67
  3
HIDETEXT
350
6B
  3
PROJECTNAME
350
768
  0
SORTENTSTABLE
  5
7A8
102
{ACAD_REACTORS
330
7A7
102
}
330
7A7
100
AcDbSortentsTable
330
1F
331
9F
  5
9F
331
6E3
  5
6E3
331
6AC
  5
6AC
331
6EB
  5
6EB
331
718
  5
718
331
6B4
  5
6B4
331
6F3
  5
6F3
331
7AE
  5
7AF
331
720
  5
721
331
6BC
  5
6BC
331
777
  5
778
331
738
  5
739
331
6C4
  5
6C4
331
6CC
  5
6CC
331
6D4
  5
6D4
331
6F9
  5
6F9
331
740
  5
741
331
748
  5
749
331
77F
  5
797
331
6DC
  5
6DC
331
709
  5
709
331
797
  5
7AB
331
711
  5
711
331
758
  5
759
331
A0
  5
A0
331
6E4
  5
6E4
331
6EC
  5
6EC
331
6AD
  5
6AD
331
6B5
  5
6B5
331
6F4
  5
6F4
331
719
  5
719
331
7AF
  5
7B0
331
6BD
  5
6BD
331
721
  5
726
331
731
  5
733
331
739
  5
73A
331
6C5
  5
6C5
331
6CD
  5
6CD
331
741
  5
742
331
778
  5
77A
331
6D5
  5
6D5
331
780
  5
7A6
331
6DD
  5
6DD
331
749
  5
756
331
70A
  5
70A
331
759
  5
75A
331
712
  5
712
331
A1
  5
A1
331
6E5
  5
6E5
331
6AE
  5
6AE
331
6ED
  5
6ED
331
71A
  5
71A
331
6B6
  5
6B6
331
6F5
  5
6F5
331
7B0
  5
7B1
331
6BE
  5
6BE
331
73A
  5
73B
331
6C6
  5
6C6
331
6CE
  5
6CE
331
742
  5
743
331
6D6
  5
6D6
331
6DE
  5
6DE
331
70B
  5
70B
331
713
  5
713
331
75A
  5
75B
331
A2
  5
A2
331
6E6
  5
6E6
331
6EE
  5
6EE
331
6AF
  5
6AF
331
6B7
  5
6B7
331
6F6
  5
6F6
331
71B
  5
71B
331
6BF
  5
6BF
331
7B1
  5
7B2
331
733
  5
736
331
73B
  5
73C
331
6C7
  5
6C7
331
6CF
  5
6CF
331
6D7
  5
6D7
331
743
  5
744
331
77A
  5
77C
331
6DF
  5
6DF
331
70C
  5
70C
331
75B
  5
75C
331
714
  5
714
331
9B
  5
9B
331
A3
  5
A3
331
582
  5
582
331
6A8
  5
6A8
331
6E7
  5
6E7
331
6B0
  5
6B0
331
6EF
  5
6EF
331
71C
  5
71D
331
6B8
  5
6B8
331
6F7
  5
6F7
331
7B2
  5
7B3
331
73C
  5
73D
331
6C0
  5
6C0
331
6C8
  5
6C8
331
6D0
  5
6D0
331
744
  5
745
331
77B
  5
77D
331
6D8
  5
6D8
331
6FD
  5
6FD
331
705
  5
705
331
70D
  5
70D
331
715
  5
715
331
75C
  5
775
331
A4
  5
A4
331
6E0
  5
6E0
331
6E8
  5
6E8
331
6A9
  5
6A9
331
6F0
  5
6F0
331
6B1
  5
6B1
331
7AB
  5
7AC
331
6B9
  5
6B9
331
71D
  5
71E
331
73D
  5
73E
331
6C1
  5
6C1
331
6C9
  5
6C9
331
6D1
  5
6D1
331
6D9
  5
6D9
331
745
  5
746
331
77C
  5
77E
331
706
  5
706
331
70E
  5
70E
331
716
  5
716
331
A5
  5
A5
331
6AA
  5
6AA
331
6E9
  5
6E9
331
6B2
  5
6B2
331
6F1
  5
6F1
331
7AC
  5
7AD
331
71E
  5
71F
331
6BA
  5
6BA
331
726
  5
731
331
775
  5
776
331
736
  5
737
331
73E
  5
73F
331
6C2
  5
6C2
331
6CA
  5
6CA
331
6D2
  5
6D2
331
746
  5
747
331
77D
  5
77F
331
6DA
  5
6DA
331
707
  5
707
331
70F
  5
70F
331
756
  5
757
331
717
  5
717
331
9E
  5
9E
331
6E2
  5
6E2
331
6EA
  5
6EA
331
6AB
  5
6AB
331
6F2
  5
6F2
331
6B3
  5
6B3
331
7AD
  5
7AE
331
6BB
  5
6BB
331
71F
  5
720
331
737
  5
738
331
776
  5
777
331
73F
  5
740
331
6C3
  5
6C3
331
6CB
  5
6CB
331
6F8
  5
6F8
331
6D3
  5
6D3
331
77E
  5
780
331
6DB
  5
6DB
331
747
  5
748
331
708
  5
708
331
757
  5
758
331
710
  5
710
  0
LAYOUT
  5
59
102
{ACAD_XDICTIONARY
360
7DD
102
}
102
{ACAD_REACTORS
330
1A
102
}
330
1A
100
AcDbPlotSettings
  1

  2
None
  4

  6

 40
0.0
 41
0.0
 42
0.0
 43
0.0
 44
0.0
 45
0.0
 46
0.0
 47
0.0
 48
0.0
 49
0.0
140
0.0
141
0.0
142
1.0
143
1.0
 70
   688
 72
     0
 73
     0
 74
     5
  7

 75
    16
147
1.0
148
0.0
149
0.0
100
AcDbLayout
  1
Layout1
 70
     1
 71
     1
 10
0.0
 20
0.0
 11
12.0
 21
9.0
 12
0.0
 22
0.0
 32
0.0
 14
0.0
 24
0.0
 34
0.0
 15
0.0
 25
0.0
 35
0.0
146
0.0
 13
0.0
 23
0.0
 33
0.0
 16
1.0
 26
0.0
 36
0.0
 17
0.0
 27
1.0
 37
0.0
 76
     0
330
58
  0
LAYOUT
  5
5E
102
{ACAD_XDICTIONARY
360
7DF
102
}
102
{ACAD_REACTORS
330
1A
102
}
330
1A
100
AcDbPlotSettings
  1

  2
None
  4

  6

 40
0.0
 41
0.0
 42
0.0
 43
0.0
 44
0.0
 45
0.0
 46
0.0
 47
0.0
 48
0.0
 49
0.0
140
0.0
141
0.0
142
1.0
143
1.0
 70
   688
 72
     0
 73
     0
 74
     5
  7

 75
    16
147
1.0
148
0.0
149
0.0
100
AcDbLayout
  1
Layout2
 70
     1
 71
     2
 10
0.0
 20
0.0
 11
12.0
 21
9.0
 12
0.0
 22
0.0
 32
0.0
 14
0.0
 24
0.0
 34
0.0
 15
0.0
 25
0.0
 35
0.0
146
0.0
 13
0.0
 23
0.0
 33
0.0
 16
1.0
 26
0.0
 36
0.0
 17
0.0
 27
1.0
 37
0.0
 76
     0
330
5D
  0
LAYOUT
  5
22
102
{ACAD_XDICTIONARY
360
7DB
102
}
102
{ACAD_REACTORS
330
1A
102
}
330
1A
100
AcDbPlotSettings
  1

  2
none_device
  4
ANSI_A_(8.50_x_11.00_Inches)
  6

 40
6.349999904632568
 41
19.04999923706055
 42
6.350006103515625
 43
19.04998779296875
 44
215.8999938964844
 45
279.3999938964844
 46
0.0
 47
0.0
 48
0.0
 49
0.0
140
0.0
141
0.0
142
1.0
143
2.584895464708373
 70
 11952
 72
     0
 73
     1
 74
     0
  7

 75
     0
147
0.3868628397755418
148
0.0
149
0.0
100
AcDbLayout
  1
Model
 70
     1
 71
     0
 10
0.0
 20
0.0
 11
12.0
 21
9.0
 12
0.0
 22
0.0
 32
0.0
 14
0.0
 24
0.0
 34
0.0
 15
0.0
 25
0.0
 35
0.0
146
0.0
 13
0.0
 23
0.0
 33
0.0
 16
1.0
 26
0.0
 36
0.0
 17
0.0
 27
1.0
 37
0.0
 76
     0
330
1F
  0
MLINESTYLE
  5
18
102
{ACAD_REACTORS
330
17
102
}
330
17
100
AcDbMlineStyle
  2
STANDARD
 70
     0
  3

 62
   256
 51
90.0
 52
90.0
 71
     2
 49
0.5
 62
   256
  6
BYLAYER
 49
-0.5
 62
   256
  6
BYLAYER
  0
ACDBPLACEHOLDER
  5
F
102
{ACAD_REACTORS
330
E
102
}
330
E
  0
TABLESTYLE
  5
87
102
{ACAD_REACTORS
330
86
102
}
330
86
100
AcDbTableStyle
  3
Standard
 70
     0
 71
     0
 40
0.06
 41
0.06
280
     0
281
     0
  7
Standard
140
0.18
170
     2
 62
     0
 63
     7
283
     0
274
    -2
284
     1
 64
     0
275
    -2
285
     1
 65
     0
276
    -2
286
     1
 66
     0
277
    -2
287
     1
 67
     0
278
    -2
288
     1
 68
     0
279
    -2
289
     1
 69
     0
  7
Standard
140
0.25
170
     5
 62
     0
 63
     7
283
     0
274
    -2
284
     1
 64
     0
275
    -2
285
     1
 65
     0
276
    -2
286
     1
 66
     0
277
    -2
287
     1
 67
     0
278
    -2
288
     1
 68
     0
279
    -2
289
     1
 69
     0
  7
Standard
140
0.18
170
     5
 62
     0
 63
     7
283
     0
274
    -2
284
     1
 64
     0
275
    -2
285
     1
 65
     0
276
    -2
286
     1
 66
     0
277
    -2
287
     1
 67
     0
278
    -2
288
     1
 68
     0
279
    -2
289
     1
 69
     0
  0
DICTIONARYVAR
  5
767
102
{ACAD_REACTORS
330
66
102
}
330
66
100
DictionaryVariables
280
     0
  1
STANDARD
  0
DICTIONARYVAR
  5
67
102
{ACAD_REACTORS
330
66
102
}
330
66
100
DictionaryVariables
280
     0
  1
0
  0
DICTIONARYVAR
  5
6B
102
{ACAD_REACTORS
330
66
102
}
330
66
100
DictionaryVariables
280
     0
  1
1
  0
DICTIONARYVAR
  5
768
102
{ACAD_REACTORS
330
66
102
}
330
66
100
DictionaryVariables
280
     0
  1

  0
DICTIONARY
  5
7DD
330
59
100
AcDbDictionary
280
     1
281
     1
  3
ACAD_XREC_ROUNDTRIP
360
7DE
  0
DICTIONARY
  5
7DF
330
5E
100
AcDbDictionary
280
     1
281
     1
  3
ACAD_XREC_ROUNDTRIP
360
7E0
  0
DICTIONARY
  5
7DB
330
22
100
AcDbDictionary
280
     1
281
     1
  3
ACAD_XREC_ROUNDTRIP
360
7DC
  0
XRECORD
  5
7DE
102
{ACAD_REACTORS
330
7DD
102
}
330
7DD
100
AcDbXrecord
280
     1
102
SHADEPLOT
 70
     0
102
SHADEPLOTRESLEVEL
 70
     2
102
SHADEPLOTCUSTOMDPI
 70
   300
  0
XRECORD
  5
7E0
102
{ACAD_REACTORS
330
7DF
102
}
330
7DF
100
AcDbXrecord
280
     1
102
SHADEPLOT
 70
     0
102
SHADEPLOTRESLEVEL
 70
     2
102
SHADEPLOTCUSTOMDPI
 70
   300
  0
XRECORD
  5
7DC
102
{ACAD_REACTORS
330
7DB
102
}
330
7DB
100
AcDbXrecord
280
     1
102
SHADEPLOT
 70
     0
102
SHADEPLOTRESLEVEL
 70
     2
102
SHADEPLOTCUSTOMDPI
 70
   300
  0
ENDSEC
  0
EOF
